Song name
# A B C D E F G H I J K L M N O P Q R S T U V W X Y Z

Carpathian Forest - Ancient Spirit Of The Underworld tab

Artist: Carpathian Forest,
album: Defending the throne of evil
Title: Ancient spirit of underwold.

/=slide

Riff1
|----------------------------|
|----------------------------|
|----------------------------|
|----------------------------|
|-2-2-3-3-2--8--7--3--6--5-3-|
|-0-0-1-1-0--6--5--1--4--3-1-|

Riff2
|--------------------------------|
|--------------------------------|
|--------------------------------|
|--------------------------------|
|-2-2-3-3-2--13--12--8--11--10-8-|
|-0-0-1-1-0--11--10--6--9---8--6-|

Riff3
|-----------------------------------------|
|-----------------------------------------|
|-----------------------------------------|
|-----------------------------------------|
|-2-2-2-2-5/7-5/7-5/7-2-2-2-2-5/6-5/6-5/6-|
|-0-0-0-0-3/5-3/5-3/5-0-0-0-0-3/4-3/4-3/4-|

Riff4
|-----------------------------------------------------------|
|-----------------------------------------------------------|
|-----------------------------------------------------------|
|-----8-----8------8---------------8------8------8----------|
|-----6-----6------6----9/8--7-----6------6------6----3/4-5-|
|-0-0----0-0---0-0----0-7/6--5-0-0----0-0----0-0----0-1/2-3-|

Riff5
|---------------------------------|
|---------------------------------|
|---------------------------------|
|---------------------------------|
|-2222333322225/6-2222333322226/5-|
|-0000111100003/4-0000111100004/3-|

Riff6
|--------------------------------|
|--------------------------------|
|--------------------------------|
|------------------------------3-|
|-2222333322226/5-222233332222-1-|
|-0000111100004/3-000011110000---|

And the song goes like this:
Riff1   1x
Riff2\
      > 3x
Riff1/
Riff3   4x
Riff4   2x
Riff3   4x
Riff4   2x
Riff5   4x
Riff6   6x
Riff5   3x
Riff6   6x
Riff2\
      > 3x
Riff1/
Riff3   4x
Riff4   2x
Riff3   4x
Riff4   2x

A|-2-  And it ends to this sound.
E|-0-

Have fun :)
Send corrections to: Petteri92@gmail.com
Tap to rate this tab
# A B C D E F G H I J K L M N O P Q R S T U V W X Y Z