Carpathian Forest - Bloodlust And Perversion tab

Artist: Carpathian Forest
Song: Bloodlust and perversion
Album: We're going to hell for this
Year: 2002

(0:05) Intro

E------------------------------|
B------------------------------|
G-----4-4-4-3-3-3-2-2-2--------|
D-----2-2-2-1-1-1-0-0-0--------|
A---2------------------2-5-5-5-|
E---0------------------0-3-3-3-|


(0:52)  fade out

E-------------|
B-------------|
G-------------|
D-------------|
A--2----------|
E--0----------|
Tap to rate this tab
 
# A B C D E F G H I J K L M N O P Q R S T U V W X Y Z