Song name
# A B C D E F G H I J K L M N O P Q R S T U V W X Y Z

Carpathian Forest - Martyr Sacrificulum tab

"Martyr/Sacrificulum" as performed by Carpathian Forest 
 on their 2000 album "Strange old brew"

Transcribed by Lord Upir on 4 November 2000

Normal tuning

Intro riff
e|-------------------------------|
B|-------------------------------|
G|-------------------------------|
D|--------------4--3-------------|
A|-2---6--5--2--2--1--/7\--/7\---|
E|-0---4--3--0--------/5\--/5\---|

Riff 2
e|-------------------------------|
B|-------------------------------|
G|-------------------------------|
D|-2--10\--2--10\--2--10\--3-5---|
A|-2--10\--2--10\--2--10\--3-5---|
E|-0---8\--0---8\--0---8\--1-3---|

Riff 3
Tremolo picking
e|----------------------------------------------|
B|----------------------------------------------|
G|----------------------------------------------|
D|----------------------------------------------|
A|---6---6-----6---6-----5---5--------2-3-5-6---|
E|-3---3---3-2---2---2-1---1---1-0----0-1-3-4---|
   ...............................

e|------------------------------------|
B|------------------------------------|
G|-----4-3-----4-3-----4-3------------|
D|-----4-3-----4-3-----4-3---3---5----|
A|-2-2-2-1-2-2-2-1-2-2-2-1---3---5----|
E|-0-0-----0-0-----0-0-----0-1--03----|

Play riff 2
Play riff 3

Ending
e|----------------|
B|----------------|
G|-5-4------------|
D|-5-4-4-5-2------|
A|-3-2-4-5-2------|
E|-----2-3-0------|
Tap to rate this tab
# A B C D E F G H I J K L M N O P Q R S T U V W X Y Z