Carpathian - Deadbeats tab

Deadbeats.
Carpathian.
Isolation.

Drop B tuning.

-----------------------------------|
-----------------------------------|
-----------------------------------|
------7-----7---------7-----7------|
----7-----7-----7---7-----7-----7--|
--0-----0-----0---7-----7-----7----|

-----------------------------------|
-----------------------------------|
----------------------0-------0----|
------7-----7-------0---0---0---0--|
----7-----7-----7------------------|
--5-----5-----5---3-------2--------|


------------------------------------|
------------------------------------|
------------------------------------|
--7------------------3-------0------|
--7------------------3-------0------|
--7------------------3-------0------|
Tap to rate this tab
 
# A B C D E F G H I J K L M N O P Q R S T U V W X Y Z