Song name
# A B C D E F G H I J K L M N O P Q R S T U V W X Y Z

Carpenters - Close To You tab

Tabbed by: John Eman
           emanjohn@ymail.com

Enjoy!!!

Rate It!
C:


Intro:

e---5-5--------------5--------------5-5-------------------------------------|
B---8-8----6-6----8-----8-----6-6---8-8----6-6------8-----------------------|
G--------5-----5-----------5-------------5------5---------------------------|
D---------------------------------------------------------------------------|
A---------------------------------------------------------------------------|
E---------------------------------------------------------------------------|

                                OR

e--------------------5------------------------------------------------------|
B---8-8----6-6----8-----8-----6-6---8-8----6-6------8-----------------------|
G--------5-----5-----------5-------------5------5---------------------------|
D---------------------------------------------------------------------------|
A---------------------------------------------------------------------------|
E---------------------------------------------------------------------------|


Verse Part:

Why do Birds, suddenly appear...


e-----------------------------------------------------|
B-------------------1-5---1-6-------------------------|
G-----5-5-3-5-7-2-2-----2---------5-----7-5-----5-----|
D-0-3-------------------------0-3---0-3-----0-3-------|
A-----------------------------------------------------|
E-----------------------------------------------------|

continued...

On the day that you were born...

e-------------------------------------------------------------------------|
B-------------------------------------------------------------------------|
G------------------------------------5-5-7-7-9-9-7-5-9---7-9-10-10-10-10--|
D-3-3-5-5-7-7-5-5---3-3-5-5-7-5--5-5--------------------------------------|
A-------------------------------------------------------------------------|
E-------------------------------------------------------------------------|

e------------------------------------------------------------------------|
B------------------------------------------------------------------------|
G-10-10-10-10-10-10-10-10-10-10--7-9-10--12------------------------------|
D------------------------------------------------------------------------|
A------------------------------------------------------------------------|
E------------------------------------------------------------------------|

NOTE:The number 10 ABOVE is stroked  times... 14
Tap to rate this tab
# A B C D E F G H I J K L M N O P Q R S T U V W X Y Z