Song name
# A B C D E F G H I J K L M N O P Q R S T U V W X Y Z

Carpenters - Weve Only Just Begun tab

Tab + Chords

* Capo on 2nd fret

CHORDS:
* G6     - [320010]
* Cmaj7  - [332000]
* Bm7    - [224232]
* Dadd9  - [002232]
* Asus4  - [002230] or [000230]
* Cmaj   - [330000]
* A7sus4 - [000233]
* G6/9   - [30023x]
* Cadd9  - [032030] or [332030]
* G#     - [466544]


Intro: 
 [   G6   Cmaj7  ] x2
e|------------------|
B|------------3-0---|
G|--------0-0-------|
D|--0-0-2-----------|
A|------------------|
E|------------------|

 G6               Cmaj7    Bm7 Asus4  Dadd9  Asus4     Cmaj7 G6
 We've only just  begun to li--ve,   White lace and promises...

e|----------------------------------2-----0----------------|
B|-----------------3--0---1--3-----------------3---0-------|
G|---------0-0----------------------------------------2--0-|
D|-0-0--2--------------------------------------------------|
A|---------------------------------------------------------|
E|---------------------------------------------------------|

  Dadd9  [A7sus4] Asus4     Cmaj7 G6/9   Asus4           G6
  A kiss for luck and we're on   our way,  (we've only begun...)
e|-2--2---3--3----0--------------------|--------------------|
B|--------------------3-----0----------|--------------------|
G|------------------------------2--2---|--------0------0----|
D|-------------------------------------|--0--2-----2---5----|
A|-------------------------------------|--------------------|
E|-------------------------------------|--------------------|

G6                Cmaj7   Bm7 Asus4  D Asus4  Cmaj7    Em
 Before the rising sun we fly-y ,   So many  roads to choose 
e|----------------------------------2--0---------------------|
B|-------------3---0---1---3-------------3---0------------3--|
G|-------0--0-------------------------------------2---0------|
D|-0-2-------------------------------------------------------|
A|-----------------------------------------------------------|
E|-----------------------------------------------------------|

  Dadd9 [A7sus4] Asus4     Cmaj7 G6/9    Asus4           G6         Cmaj7
  We start out walking and learn to run, and yes, We've just begun
e|-2--2----3---3---0------------------------------------------|
B|---------------------3---0-----------------------------3--0-|
G|-------------------------------2--2-------------0--0--------|
D|---------------------------------------0--2-----------------|
A|------------------------------------------------------------|
E|------------------------------------------------------------|

   E         A          A5   E          E       A5     A     A5        E      G
  Sharing horizons that are new to us, Watching the signs along the way,  ooo ahh
e|------------------------------------------------------------------------------|
B|--0-0-----0-2-------------------------0--0--------0----2----------------------|
G|--------1-------------2----1------------------1---------------2---1------1--0-|
D|------------------2-----------4--6------------------------2-------------------|
A|------------------------------------------------------------------------------|
E|------------------------------------------------------------------------------|

 G          C             G          G         C             G6     Am        Asus4
 Talking it over just the two of us, Working together day to day, together, together...
e|------------0------------------------------------0-----|-------------------------------|
B|-3--3--0--3-------------------------3--3---0--3---------------------------------3---3-3|
G|--------------------3---2---0---2-----------------------3---2--------------5--5--------|
D|----------------3------------------------------------3----------3--3--5----------------|
A|---------------------------------------------------------------------------------------|
E|---------------------------------------------------------------------------------------|

 G6                    Cmaj7     Bm7   Dadd9 Asus4  Cmaj7 G6
  And when the evening comes we smile, So much of  life ahead 
e|----------------------------------2--0---------------------|
B|-------------3---0---1---3-------------3---0------------3--|
G|-------0--0-------------------------------------2---0------|
D|-0-2-------------------------------------------------------|
A|-----------------------------------------------------------|
E|-----------------------------------------------------------|

 Dadd9     [A7sus4] Asus4        Cmaj7 G6/9    Asus4           G6         Cmaj7
We'll find a place where there's room to grow, And yes, We've just begun
e|-2--2----3---3---0------------------------------------------|
B|---------------------3---0-----------------------------3--0-|
G|-------------------------------2--2-------------0--0--------|
D|---------------------------------------0--2-----------------|
A|------------------------------------------------------------|
E|------------------------------------------------------------|

[Repeat Chorus] & Verse

 Asus4                  G6   Cmaj7  G6 
...and yes we've just beguu--uuuhhn


The Tab is very simple but I hope it helps with the chords.
SeekTheRighteous1@hotmail.com
Tap to rate this tab
# A B C D E F G H I J K L M N O P Q R S T U V W X Y Z