Guitaretab - guitar tabs
Song name
# A B C D E F G H I J K L M N O P Q R S T U V W X Y Z

Carrie Underwood - Spring Rain tab

e------------------0-0--0-1-0------------------------------------------------|
b----0---0---0---0------------3-2-1-0---0---0---0---0--3-3-1-0---0-----------|
g---0---0---0---0----------------------0---0---0---0-----------3-------------|
d--0---0---0---0----------------------0---0---0---0--------------------------|
a----------------------------------------------------------------------------|
e----------------------------------------------------------------------------|

e----------------------------------------------------------------------------|
b---0---0---0---0--0-0--0-----1--0---0---0----0------------------------------|
g--0---0---0---0----------3-0-------0---0----0-------------------------------|
d-0---0---0---0--------------------0---0----0--------------------------------|
a----------------------------------------------------------------------------|
e----------------------------------------------------------------------------|
[ Tab from: http://www.guitaretab.com/c/carrie-underwood/149247.html ]
Related for Spring Rain tab
Advertisement will be closed in 10 seconds