Guitaretab - guitar tabs
Song name
# A B C D E F G H I J K L M N O P Q R S T U V W X Y Z

Carrie Underwood - Just A Dream tab

-------------------------------------------------------------------------------
			     Just A Dream - AM 60
-------------------------------------------------------------------------------

Tabbed by: Apple Cabrera
Email: jn.cabrera@hotmail.com

Tuning: Standard



Bass line, it goes the on and on throughout the whole song:

e|---------------------------------------------------------------------------|
B|---------------------------------------------------------------------------|
G|---------------------------------------------------------------------------|
D|---------------------------------1-----------------------------------------|
A|----2-----1----------------------------4-------------1-----2---------------|
E|----------------4-----2-----0------------------2--4-----2------------------|

For the guitar, well.. everytime you hear it it's just a simple B bar chord.

e|----2------|
B|----4------|
G|----4------|
D|----4------|
A|----2------|
E|----2------|

Intro guitar.
[ Tab from: http://www.guitaretab.com/c/carrie-underwood/161159.html ]
e|---------------------------------------------------------------------------|
B|---------------------------------------------------------------------------|
G|--------------------1--3--4--6--4~-----------------------------------------|
D|-----------1--2--4---------------------------------------------------------|
A|--2--2--4------------------------------------------------------------------|
E|---------------------------------------------------------------------------|

^ You repeat this first part a couple times in the end.

e|---------------------------------------------------------------------------|
B|--4--5--4--/7---5-4-5---2-0-2---4-0-0---2-2~-------------------------------|
G|---------------------------------------------------------------------------|
D|---------------------------------------------------------------------------|
A|---------------------------------------------------------------------------|
E|---------------------------------------------------------------------------|



And then you're done.
Related for Just A Dream tab
Just A Dream chords by Carrie Underwood