Carrie Underwood - Mamas Song tab

The intro for this song is extremely difficult to play on just one guitar (unless you 
can REALLY stretch you're fingers) so it might be easier to play it with another person 
with 2 guitars.

**I TRIED MY BEST TO LINE UP THE NOTES IN GUITAR 1 AND GUITAR 2 AS ACCURATELY AS 
POSSIBLE, IF ITS HARD TO UNDERSTAND JUST LISTEN TO THE TIMING IN THE SONG, IT'S REALLY EASY**


GUITAR 1:

E---------------------------------------------------------------|
B-------3-------------3-----------------3-------------3---------|
G----------2-------2-----2-----------------2-------2-----2------|
D---------------------------------------------------------------|
A----0----------0--------------------0----------0---------------|
E-3-------------------------------3-----------------------------|

E---------------------------------------------------------------|
B-------3-------------3-----------------3-------------3---------|
G----------2-------2-----2-----------------2-------2-----2------|
D---------------------------------------------------------------|
A----0----------0--------------------0----------0---------------|
E-3-------------------------------3-----------------------------|

GUITAR 2:

E-----------------------------------------------------0-----5----|
B---------------------3---2---3~-------------------------3-------|
G----------------------------------------------------------------|
D----------------------------------------------------------------|
A----------------------------------------------------------------|
E----------------------------------------------------------------|

E-----------------------------5------------5/7-----------0-------|
B---------------------0---3------------------------0--3----------|
G----------------------------------------------------------------|
D----------------------------------------------------------------|
A----------------------------------------------------------------|
E----------------------------------------------------------------|
Tap to rate this tab
 
# A B C D E F G H I J K L M N O P Q R S T U V W X Y Z