Song name
# A B C D E F G H I J K L M N O P Q R S T U V W X Y Z

Carry On Cabbies - Blame It On Jez tab

Artist: Carry on Cabbies
Song: blame it on jez
Album: We blow goats

|:---------------------------------------------------------------|
|:---------------------------------------------------------------|
|:---------------------------------------------------------------|
|:-----------------6-7-(6)-------------0-2-------------3-4-------|
|:-----7pm-7pm-7pm--------2pm--2pm-2pm-----4pm-4pm-4pm-----------|
|:---------------------------------------------------------------|

<--------1st time----------> <-2nd time->
----------------------------:|----------|
----------------------------:|----------|
----------------------------:|--2-------|
----------------------------:|--2-------|x2 (second time dont use pm)
-----------------0-2--------:|--0-------|
-2pm-2pm-2pm-2pm------------:|----------|


chrous

-----------------------------------|
-----------------------------------|
-10--9--7-7-5----------------------|
-10--9--7-7-5-7--------x4----------|
--8--7--5-5-3-7--------------------|
--------------5--------------------|
Tap to rate this tab
# A B C D E F G H I J K L M N O P Q R S T U V W X Y Z