Song name
# A B C D E F G H I J K L M N O P Q R S T U V W X Y Z

Carry On Cabbies - Dont Let School Interfer With Your Education tab

Artist: Carry on Cabbies
Song: Dont let school interfer with your education
Album: We blow goats

-------15------8---------10------8------------------|
-------15------8---------10------8------------------|
----------------------------------------------------|
----------------------------------------------------|
----14-----7-7-----9--9-------7---------------------|
----15-----8-8----10-10-------8---------------------|


throught verse


chorus

------------------------------------------|
------------------------------------------|
--12--------------------------------------|
--12----10----12----10--------------------|
--10----10----12----10--------------------|
---------8----10-----8--------------------|

Tap to rate this tab
 
# A B C D E F G H I J K L M N O P Q R S T U V W X Y Z