Song name
# A B C D E F G H I J K L M N O P Q R S T U V W X Y Z

Carry On Cabbies - Blue Tramp tab

artist: Carry on Cabbies
Song: Blue tramp
Album: We blow goats

-------------------------------|
-8p10--6p8-4p6-3---------------|
-9-----7---5---4---------------|
-------------------------------|
-------------------------------|
-------------------------------|

verse
------------------------------|
------------------------------|
------5-8-10-10-8-5-----------|
------5-8-10-10-8-5--5--------|
------3-6--8--8-6-3--5--------|
---------------------3pm------|

chorus
-------------------------------|
-------------------------------|
-10--9-5 ----------------------|
-10--9-5-----------------------|
-8---7-3-----------------------|
-------------------------------|

solo
---------------------------------------------------------|
-----8----8p10p8-----------------------------------4-6-4-|
--10---10--------10^-10-9-5-5-4-8-10--10-8-5--5-5--------|
---------------------------------------------------------|
---------------------------------------------------------|
---------------------------------------------------------|

---------------------------------------------------------|
-10-9-7-10-9-5--10-9-3-3-1-0-----------------------------|
---------------------------------------------------------|
---------------------------------------------------------|
---------------------------------------------------------|
---------------------------------------------------------|
Tap to rate this tab
# A B C D E F G H I J K L M N O P Q R S T U V W X Y Z