Song name
# A B C D E F G H I J K L M N O P Q R S T U V W X Y Z

Carry On - Waiting On Forever tab

-------------------------------------------------------------------------------
			WAITING ON FOREVER - Carry On
-------------------------------------------------------------------------------

By: Mike Crucial www.myspace.om/mikecrucial

   Intro
E|-----------------|---------------------------------------------------------|
B|-----------(x4)--|---------------------------------------------------------|
G|--3-3-3----------|-----------------7-9-------------------------------------|
D|--3-3-3-2--------|--2-2-2-2-2-2-2--7-9--2-2-2-2-2--2--2--2-----------------|
A|--1-1-1-2--------|--2-2-2-2-2-2-2--5-7--2-2-2-2-2--2--2--2-----------------|
E|--------0--------|--0-0-0-0-0-0-0-------0-0-0-0-0--0--0--0-----------------|

   Verse					    Chorus
E|----------------------|----------------|--------|--------------------------|
B|----------------(x )--|----------------|--(x2)--|--------------------------|
G|---------3-3-3--------|---------3-3-3--|--------|--------------------------|
D|--2-2-2--3-3-3--------|--5-5-5--3-3-3--|--------|--7-7-7-7-8-7--2-2-2-2----|
A|--2-2-2--1-1-1--------|--5-5-5--1-1-1--|--------|--7-7-7-7-8-7--2-2-2-2----|
E|--0-0-0---------------|--3-3-3---------|--------|--5-5-5-5-6-5--0-0-0-0----|

E|------------------------|--------|        |--------------------------------|
B|------------------------|--(x2)--|        |--------------------------------|
G|------------------------|--------| Repeat |-----9--------------------------|
D|--7-7-7-7-8-7--8-8-8-8--|--------| Verse  |--2------2--2-2-2-2-2-2--2--2---|
A|--7-7-7-7-8-7--8-8-8-8--|--------|        |--2--7/--2--2-2-2-2-2-2--2--2---|
E|--5-5-5-5-6-5--6-6-6-6--|--------|        |--0------0--0-0-0-0-0-0--0--0---|

   Break/Outro
E|-------------------------------------------|-------------------------------||
B|-------------------------------------(x )--|-------------------------------||
G|--3------3------3------3----------3--------|-------------------------------||
D|--3-2-2--3-2-2--3-2-2--3-2-2--5-5-3--------|--2----------------------------||
A|--1-2-2--1-2-2--1-2-2--1-2-2--5-5-1--------|--2----------------------------||
E|----0-0----0-0----0-0----0-0--3-3----------|--0----------------------------||

===============================================================================
Tap to rate this tab
 
# A B C D E F G H I J K L M N O P Q R S T U V W X Y Z