Song name
# A B C D E F G H I J K L M N O P Q R S T U V W X Y Z

Carry On - Roll With The Punches tab

------------------------------------------------------------------------------------------------
			     Roll With the Punches - Carry On 
------------------------------------------------------------------------------------------------

By Mike Crucial www.myspace.com/mikecrucial

   Intro					             Verse
e|-------------|-------------------------------------------|-----------------------------------|
B|-------------|-------------------------------------(x2)--|-----------------------------(x4)--|
G|-------------|--------------------8-8-8--11-11-11--------|---------5-5-5---------8-11--------|
D|--5-7--0--0--|---7-x-x-x-x-x-x-x--8-8-8--11-11-11--------|--7-7-7--5-5-5--8-8-8--8-11--------|
A|-------0--0--|---7-x-x-x-x-x-x-x--6-6-6--9--9--9---------|--7-7-7--3-3-3--8-8-8--6-9---------|
E|--3-5--------|--(5)x-x-x-x-x-x-x-------------------------|--5-5-5---------6-6-6--------------|

   Chorus						     Bridge
e|------------------------------------------|-----|        |-----------------------------------|
B|------------------------------------(x2)--|-----|        |-----------------------------(x2)--|
G|---------------5-5-5-5--8-8-8-------------|-----| Repeat |--------5-----8--------------------|
D|--7-7-7-7-7-7--5-5-5-5--8-8-8--8-8--------|--7--| Verse/ |--7--5--5--8--8--------------------|
A|--7-7-7-7-7-7--3-3-3-3--6-6-6--8-8--------|--7--| Chorus |--7--5--3--8--6--------------------|
E|--5-5-5-5-5-5------------------6-6--------|--5--|        |--5--3-----6-----------------------|

   Break/Outro
e|---------------------------------------------------------|-----------------------------------||
B|---------------------------------------------------(x )--|------10---------------------------||
G|-----------------------------7-8-8-8--10-11-11-11--------|-----------------------------------||
D|--7-7-7-7-7-7-7-7-7-7-7-7-7--7-8-8-8--10-11-11-11--------|--7---7----------------------------||
A|--7-7-7-7-7-7-7-7-7-7-7-7-7--5-6-6-6--8--9--9--9---------|--7--------------------------------||
E|--5-5-5-5-5-5-5-5-5-5-5-5-5------------------------------|--5--------------------------------||

==================================================================================================
Tap to rate this tab
# A B C D E F G H I J K L M N O P Q R S T U V W X Y Z