Song name
# A B C D E F G H I J K L M N O P Q R S T U V W X Y Z

Carry On - Mirrors And Needles tab

-------------------------------------------------------------------------------
 			Mirrors and Needles - Carry On
-------------------------------------------------------------------------------

By Mike Crucial www.myspace.com/mikecrucial

   	 Verse			      Chorus
e|-----|----------------------------|------------------------|	      |---------------|
B|-----|----------------------(x4)--|------------------(x4)--|        |---------------|
G|-----|-----------9-10-9-10--------|--7-7-7--9-10-10--------| Repaet |---------------|
D|--9--|--9-9-9-9--9-10-9-10--------|--7-7-7--9-10-10--------| Verse/ |--9-9-9-9-9-9--|
A|--9--|--9-9-9-9--7-8--7-8---------|--5-5-5--7-8--8---------| Chorus |--9-9-9-9-9-9--|
E|--7--|--7-7-7-7-------------------|------------------------|        |--7-7-7-7-7-7--|

e|---------------------------------------------------------------------------|
B|---------------------------------------------------------------------------|
G|---------------------------------------------------------------------------|
D|--9--9--9--9-9-------------------------------------------------------------|
A|--9--9--9--9-9-------------------------------------------------------------|
E|--7--7--7--7-7-------------------------------------------------------------|

   Repeat Chorus

e|---------------------------------------------------------------------------||
B|---------------------------------------------------------------------------||
G|---------------------------------------------------------------------------||
D|--9------------------------------------------------------------------------||
A|--9------------------------------------------------------------------------||
E|--7------------------------------------------------------------------------||

===============================================================================
Tap to rate this tab
# A B C D E F G H I J K L M N O P Q R S T U V W X Y Z