Song name
# A B C D E F G H I J K L M N O P Q R S T U V W X Y Z

Carry On - Is This All There Is tab

-------------------------------------------------------------------------------
			Is This All There Is - Carry On
-------------------------------------------------------------------------------

By Mike Crucial www.myspace.com/mikecrucial
   Intro					 Verse
e|---------------------------------------------|------------------------------|
B|---------------------------------------(x2)--|------------------------(x5)--|
G|--------------------------------6-6-6--------|-------3-3-3--3-5--6-6--------|
D|--5-5-5-5-5-5--------5-5-5-5-5--6-6-6--------|--5-5--3-3-3--3-5--6-6--------|
A|--5-5-5-5-5-5--4-4---5-5-5-5-5--4-4-4--------|--5-5--1-1-1--1-3--4-4--------|
E|--3-3-3-3-3-3--4-4---3-3-3-3-3---------------|--3-3-------------------------|

   Chorus					      Break
e|-----------------------------------------|      |-----------------------------------------------|
B|-----------------------------------------|      |-----------------------------------------(x2)--|
G|-----------5-5-5-5-3-3-5--6-6-6-6-6-6-6--|Repeat|-------------6-6-6-6-6-------------------------|
D|--5-5-5-5--5-5-5-5-3-3-5--6-6-6-6-6-6-6--|Verse/|--5-5-5-5-5--6-6-6-6-6--8-8-8-8-8-8--6-6-------|
A|--5-5-5-5--3-3-3-3-1-1-3--4-4-4-4-4-4-4--|Chorus|--5-5-5-5-5--4-4-4-4-4--8-8-8-8-8-8--6-6-------|
E|--3-3-3-3--------------------------------|      |--3-3-3-3-3-------------6-6-6-6-6-6--4-4-------|

e|-----|---------------------------------------------------------------------||
B|-----|------------------------------------------------------------(x... )--||
G|-----|-------------6-6-6-6-6-----------------------------------------------||
D|--5--|--5-5-5-5-5--6-6-6-6-6--8-8-8-8-8-8--6-6-----------------------------||
A|--5--|--5-5-5-5-5--4-4-4-4-4--8-8-8-8-8-8--6-6-----------------------------||
E|--3--|--3-3-3-3-3-------------6-6-6-6-6-6--4-4-----------------------------||

===============================================================================
Tap to rate this tab
# A B C D E F G H I J K L M N O P Q R S T U V W X Y Z