Song name
# A B C D E F G H I J K L M N O P Q R S T U V W X Y Z

Carry On - A Life Less Plagued tab

--------------------------------------------------------------------------------------
  		           A LIFE LESS PLAGUED - Carry On
--------------------------------------------------------------------------------------

By: Mike Crucial www.myspace.com/mikecrucial

   Intro				       Verse	
E|-------------------------------------------|--------------------------------------|
B|-------------------------------------------|--------------------------------------|
G|--11-11--11-11-11-11-11-11-11-11-11-11-11--|------------------------------5-------|
D|--11-11------------------------------------|--4-4-4-4-4-4--7-7---4-4-4-4--5--7-7--|
A|--9--9---9--9--9--9--9--9--9--9--9--9--9---|--4-4-4-4-4-4--7-7---4-4-4-4--3--7-7--|
E|-------------------------------------------|--2-2-2-2-2-2--5-5---2-2-2-2-----5-5--|

					Chorus
E|---------------------------|--------|---------------------------------------------|
B|---------------------------|--(x2)--|---------------------------------------(x2)--|
G|--------------------5------|--------|---------------------------------------------|
D|--4-4-4-4-4-4--7-7--5-7-2--|--------|--4-4-4--5-5-5--2-2-2--5-5-5--7-7-7----------|
A|--4-4-4-4-4-4--7-7--3-7-2--|--------|--4-4-4--5-5-5--2-2-2--5-5-5--7-7-7----------|
E|--2-2-2-2-2-2--5-5----5-0--|--------|--2-2-2--3-3-3--0-0-0--3-3-3--5-5-5----------|

							 Bridge
E|-----------------------------------------------------|----------------------------|
B|-----------------------------------------------(x2)--|----------------------------|
G|-------6-6-------7-7-------4-4-----------------------|----------------------------|
D|--4-4--4-4--5-5--5-5--2-2--2-2--5-5-5--7-7-7---------|--4-4-4-4-4-4-4-------------|
A|--4-4-------5-5-------2-2-------5-5-5--7-7-7---------|--4-4-4-4-4-4-4-------------|
E|--2-2-------3-3-------0-0-------3-3-3--5-5-5---------|--2-2-2-2-2-2-2-------------|

   Repeat Verse/Chorus

   Bridge
E|--------------------------------------------------------------------------------------------|
B|--------------------------------------------------------------------------------------(x2)--|
G|---------6-6---------6-6--5-5-5-5--9-9-9-9----------6-6---------6-6--5-5-5------------------|
D|--4-4-4--4-4--4-4-4--4-4--5-5-5-5--9-9-9-9---4-4-4--4-4--4-4-4--4-4--5-5-5--5-5--7-7--------|
A|--4-4-4-------4-4-4-------3-3-3-3--7-7-7-7---4-4-4-------4-4-4-------3-3-3--5-5--7-7--------|
E|--2-2-2-------2-2-2--------------------------2-2-2-------2-2-2--------------3-3--5-5--------|

   Break				       Bridge
E|-------------------------------------------|--------------------------------------|
B|-------------------------------------(x )--|--------------------------------------|
G|--------------------------5-5-5-5-5--------|--------------------------------------|
D|--4-4-4-4-4-4--7-7-7-7-7--5-5-5-5-5--------|--4--4-4-4-4-4-4-4-4-4-4--------------|
A|--4-4-4-4-4-4--7-7-7-7-7--3-3-3-3-3--------|--4--4-4-4-4-4-4-4-4-4-4--------------|
E|--2-2-2-2-2-2--5-5-5-5-5-------------------|--2--2-2-2-2-2-2-2-2-2-2--------------|

   Ourto
E|----------------------------------------------------------------------------------||
B|----------------------------------------------------------------------------------||
G|----------------------------------------------------------------------------------||
D|--4-4-4-4-4-4-4--7-7--2-4--7-7--2-4-----------------------------------------------||
A|--4-4-4-4-4-4-4--7-7--2-4--7-7--2-4-----------------------------------------------||
E|--2-2-2-2-2-2-2--5-5--0-2--5-5--0-2-----------------------------------------------||

========================================================================================
Tap to rate this tab
# A B C D E F G H I J K L M N O P Q R S T U V W X Y Z