Song name
# A B C D E F G H I J K L M N O P Q R S T U V W X Y Z

Carry On - Killing A Sound tab

http://bridge9.com/bridgenine/band-carryon.html

----------------------------------------------------------------------------
			     Killing a Sound - Carry On
----------------------------------------------------------------------------
Tabbed by: Jordan
Email: norcalhero84@yahoo.com

Tuning: Standard

Listen to song for rythms

Intro:
e|--------|------------------|---------------------------------------------|
B|--------|------------------|---------------------------------------------|
G|7-7-5-8-|-7---------7------|---------------------------------------------|
D|7-7-5-8-|-5---------7------|----X2---------------------------------------|
A|5-5-3-6-|-5---------5------|---------------------------------------------|
E|--------|------------------|---------------------------------------------|

Verse:
e|-------------------------------------------------------------------------|
B|-------------------------------------------------------------------------|
G|7-7-7-7--5-5-5--10-10-10--7-7-7--5-5-5--8-8-8----------------------------|
D|7-7-7-7--5-5-5--10-10-10--7-7-7--5-5-5--8-8-8----------------------------|
A|5-5-5-5--3-3-3--8--8--8---5-5-5--3-3-3--6-6-6----------------------------|
E|-------------------------------------------------------------------------|
                                                                                 X2
e|-------------------------------------------------------------------------|
B|-------------------------------------------------------------------------|
G|7-7-7-7--5-5-5--10-10-10----8-8----10-10---------------------------------|
D|7-7-7-7--5-5-5--10-10-10--8-8-8-10-10-10---------------------------------|
A|5-5-5-5--3-3-3--8--8--8---8-6-6-10-8--8----------------------------------|
E|--------------------------6-----8----------------------------------------|

Bridge: lead guitar  ("Trying...we'll keep on trying...)
e|-------------------------------------|-----------------------------------|
B|---6-5-----6-5-----6-5---8-6-5---X2--|-----------------------------------|
G|77-----777-----555-----5-------------|7------7-----5--8--7------7----5--8|
D|-------------------------------------|7------7-----5--8--7------7----5--8|
A|-------------------------------------|5------5-----3--6--5------5----3--6|
E|-------------------------------------|-----------------------------------|

Pre-breakdown:
e|-------------------------------------------------------------------------|
B|---------------------------------------------------------10b-------------|
G|7---------------<5>--------------------------------<5b>------------------|
D|7--<5-7-7-5-7-7>---<7-7-5-7-7-5-7-7-7-5-7-7--5-7-7>----------------------|
A|5------------------------------------------------------------------------|
E|-------------------------------------------------------------------------|
                                                                 ~~~~~~~~~~
Breakdown:
e|---------------------------------------------------------------------------|
B|---------------------------------------------------------------------------|
G|xxxx-7-xxxx-7-xxxx-7-xxxx-7--3-3-3-5-5-5-8-8-8-8-8-8-8-8-------------------|
D|xxxx-7-xxxx-7-xxxx-7-xxxx-7--3-3-3-5-5-5-8-8-8-8-8-8-8-8---X2--------------|
A|xxxx-5-xxxx-5-xxxx-5-xxxx-5--1-1-1-3-3-3-6-6-6-6-6-6-6-6-------------------|
E|---------------------------------------------------------------------------|

  .      . . . . . . . . . . . . . .   .. .. .. .. .. .  ..  ..  .. .. ..
e|-------------------------------------------------------------------------|
B|-------------------------------------------------------------------------|
G|7------3-3-3-5-5-5-8-8-8-8-8-8-8-8---77-77-77-77-77-7--33--55--88-88-88-7|
D|7-X16--3-3-3-5-5-5-8-8-8-8-8-8-8-8---77-77-77-77-77-7--33--55--88-88-88-7|
A|5------1-1-1-3-3-3-6-6-6-6-6-6-6-6---55-55-55-55-55-5--11--33--66-66-66-5|
E|-------------------------------------------------------------------------|

Key:
=harmonics
~ = pick scrape
.= palm mute
Tap to rate this tab
# A B C D E F G H I J K L M N O P Q R S T U V W X Y Z