Song name
# A B C D E F G H I J K L M N O P Q R S T U V W X Y Z

Carry On - Off My Chest tab

-------------------------------------------------------------------------------
			    off my chest - Carry on
-------------------------------------------------------------------------------
Tabbed by: Toote
Email: guitar_G@web.de
Is anything wrong in this Tab?
Please contact me...!THX




Tuning: Standard


  INTRO
e|---------------------------------------------------------------------------|
B|---------------------------------------------------------------------------|
G|---------------------------------------------------------------------------|
D|---------------------------------------------------------------------------|
A|---------------------------------------------------------------------------|
E|2--------------------------------------------------------------------------|

e|---------------------------------------------------------------------------|
B|---------------------------------------------------------------------------|
G|---------------------------------------------------------------------------|
D|---------------------------------------------------------------------------|
A|4-------------------------------4-----------------8887775----777-----------|
E|2-------------------------------2-----------------6665553----555-----------|
  
 
e|---------------------------------------------------------------------------|
B|---------------------------------------------------------------------------|
G|---------------------------------------------------------------------------|
D|---------------------------------------------------------------------------|
A|4-4---4---4---4-8887-78885-5777--------------------------------------------|
E|2-2-222-222-222-6665-56663-3555--------------------------------------------|4X
  

e|---------------------------------------------------------------------------|
B|---------------------------------------------------------------------------|
G|---------------------------------------------------------------------------|
D|---------------------------------------------------------------------------|
A|4-44----2-22-2225-55-555-555-555-------------------------------------------|
E|2-22-2220-00-0003-33-333-333-333-------------------------------------------|2X
       ... 

e|---------------------------------------------------------------------------|
B|---------------------------------------------------------------------------|
G|---------------------------------------------------------------------------|
D|---------------------------------------------------------------------------|
A|4-4---4---4---4-8887-78885-5777--------------------------------------------|
E|2-2-222-222-222-6665-56663-3555--------------------------------------------|4X
  



e|---------------------------------------------------------------------------|
B|---------------------------------------------------------------------------|
G|---------------------------------------------------------------------------|
D|---------------------------------------------------------------------------|
A|4-44----2-22-2225-55-555-555-555-------------------------------------------|
E|2-22-2220-00-0003-33-333-333-333-------------------------------------------|2X
       ... 

e|---------------------------------------------------------------------------|
B|---------------------------------------------------------------------------|
G|---------------------------------------------------------------------------|
D|---------------------------------------------------------------------------|
A|4-------5-------2-------7-77-57--------------------------------------------|
E|2-------3-------0-------5-55-35--------------------------------------------|2X


e|---------------------------------------------------------------------------|
B|---------------------------------------------------------------------------|
G|---------------------------------------------------------------------------|
D|---------------------------------------------------------------------------|
A|4-7---5-8---4--------------------------------------------------------------|
E|2-5---3-6---2--------------------------------------------------------------|4X


e|---------------------------------------------------------------------------|
B|---------------------------------------------------------------------------|
G|---------------------------------------------------------------------------|
D|---------------------------------------------------------------------------|
A|4-7---5-8---4---4-4-4-4-4-4-4-4--------------------------------------------|
E|2-5---3-6---2---2-2-2-2-2-2-2-2--------------------------------------------|4x
          


e|---------------------------------------------------------------------------|
B|---------------------------------------------------------------------------|
G|---------------------------------------------------------------------------|
D|---------------------------------------------------------------------------|
A|4-7---5-8---4---4---4---4---4----------------------------------------------|
E|2-5---3-6---2---2---2---2---2----------------------------------------------|4x





| /  slide up
| \  slide down
| h  hammer-on
| p  pull-off
| ~  vibrato
| +  harmonic
| x  Mute note
| .  Flageolett

===============================================================================
Tap to rate this tab
 
# A B C D E F G H I J K L M N O P Q R S T U V W X Y Z