Song name
# A B C D E F G H I J K L M N O P Q R S T U V W X Y Z

Cars - Bye Bye Love tab

I was looking for this song on here and they dont have which surprised me so
here you go
----------------------------------------------------------------------------
			     SONG NAME - Band Name
----------------------------------------------------------------------------
Tabbed by:
Email:

Tuning:Standard

e|---------------------------------------------------------------------------|
B|----------------------9-----7------7-------9-----9---7---5------9----------|
G|---6-7---6-7---6-7-9--9-----7------6-------9------9---7---6----9-----------|
D|-9-----9-----9--------9-----7------5-------9-------9---7---7--9------------|
A|---------------------------------------------------------------------------|
E|-----------------------0-0-0--0-0-0--0-0-0--0-0-0--------------------------|
  you keep repeating this main part then you do something like this
e|-14-10---19-15---14-10---19-15---------------------------------------------|
B|------12------17------12------17-------------------------------------------|
G|---------------------------------------------------------------------------|
D|---------------------------------------------------------------------------|
A|---------------------------------------------------------------------------|
E|---------------------------------------------------------------------------|
  after that do chorus
e|---------------------------------------------------------------------------|
B|---------------------------------------------------------------------------|
G|------4-4--2-2--------4-4--2-2--------4-4--2-2-----------------------------|
D|-2-2--4-4--2-2---2-2--4-4--2-2---2-2--4-4--2-2-----------------------------|
A|-2-2--2-2--0-0---2-2--2-2--0-0---2-2--2-2--0-0-----------------------------|
E|-0-0-------------0-0-------------0-0---------------------------------------|

thats about it except for keyboard and guitar solos tha i will post later but for now 
can improvise
Tap to rate this tab
 
# A B C D E F G H I J K L M N O P Q R S T U V W X Y Z