Song name
# A B C D E F G H I J K L M N O P Q R S T U V W X Y Z

Cars - Magic tab

The intro the Magic by The Cars. I checked, pretty sure nobody's posted it like this 
Basic tuning.

--------------|
--------------|
-----7-9---7--|
---7-7-9-7-7--|
---7-5-7-7-5--|
---5---0-5----|

It's kind of short, so I'll throw in the first chorus (Keyboard part, but for guitar) as well:
---9--9--9--10-10-10-10-10-12-12-12-12-12-12-12-12-9--9--9--10-10-10-10---|
---10-10-10-10-10-10-10-10-9--9--9--10-10-10-9--9--10-10-10-10-10-10-10---|
--------------------------------------------------------------------------|
--------------------------------------------------------------------------|
--------------------------------------------------------------------------|
--------------------------------------------------------------------------|
There are some amp effects involved in the song, but that should cover it.

That's all.
Tap to rate this tab
# A B C D E F G H I J K L M N O P Q R S T U V W X Y Z