Song name
# A B C D E F G H I J K L M N O P Q R S T U V W X Y Z

Cars - Let The Good Times Roll tab

-------------------------------------------------------------------------------
     LET THE GOOD TIMES ROLL - The Cars
-------------------------------------------------------------------------------
Tabbed by: sh3p
Email: sh3p@live.com

Tuning: EADGBE

Intro
e|-------------------------------------------------------------------------|
B|-------------------------------------------------------------------------|
G|-------------------------------------------------------------------------|
D|--------9-----------9-----------9-----------9-----------9----------------|
A|-------------------------------------------------------------------------|
E|-7--7-7---7--7--7-7---7--7--7-7---7--7--7-7---7--7--7-7---7--------------|

Here is the little change it does...listen to the song for exact counts
e|-------------------------------------------------------------------------|
B|-------------------------------------------------------------------------|
G|-------------------------------------------------------------------------|
D|--------7-----------9----------------------------------------------------|
A|-------------------------------------------------------------------------|
E|-5--5-5---5--7--7-7------------------------------------------------------|
           "Let them lead you up in the air..." (Listen to song for strum)
e|-------------------------------------------------------------------------|
B|-------------------------------------------------------------------------|
G|-------------------------------------------------------------------------|
D|-9-9-\-3-3-3-/-7-7-7---3-3-3-/-7-7-7-------------------------------------|
A|-9-9-\-3-3-3-/-7-7-7---3-3-3-/-7-7-7-------------------------------------|
E|-7-7---5-5-5-/-5-5-5---5-5-5-/-5-5-5-------------------------------------|

e|-------------------------------------------------------------------------|
B|-------------------------------------------------------------------------|
G|-------------------------------------------------------------------------|
D|-9-9-9--9-9---9-9-9--9-9---7-7-7--7-7---7-7-7---7-7----------------------|
A|-9-9----9-9---9-9----9-9---7-7----7-7---7-7-----7-7----------------------|
E|-7-7----7-7---7-7----7-7---5-5----5-5---5-5-----5-5----------------------|

   "Let the |good| |times| |roll|"
e|-------------------------------------------------------------------------|
B|-------------------------------------------------------------------------|
G|------------9-------7------6---------------------------------------------|
D|------------9-------7------6---------------------------------------------|
A|------------7-------5------4---------------------------------------------|
E|-------------------------------------------------------------------------|

e|-------------------------------------------------------------------------|
B|-------------------------------------------------------------------------|
G|-------------------------------------------------------------------------|
D|-9-9-9--9-9---9-9-9--9-9---7-7-7--7-7---7-7-7---7-7----------------------|
A|-9-9----9-9---9-9----9-9---7-7----7-7---7-7-----7-7----------------------|
E|-7-7----7-7---7-7----7-7---5-5----5-5---5-5-----5-5----------------------|
        
        "Let them lead you up in the air..." (Listen to song for strum)
e|-------------------------------------------------------------------------|
B|-------------------------------------------------------------------------|
G|-------------------------------------------------------------------------|
D|-9-9-\-3-3-3-/-7-7-7---3-3-3-/-7-7-7-------------------------------------|
A|-9-9-\-3-3-3-/-7-7-7---3-3-3-/-7-7-7-------------------------------------|
E|-7-7---5-5-5-/-5-5-5---5-5-5-/-5-5-5-------------------------------------|

Listen to the song, it repeats those parts and has some sort of synthesizer
going. A second guitar comes in just before the solo starts which isn't
included in this tab. When I play it I mute strings and strum muted strings
at various parts which is just the style I play it. This is a guide line for
 you to adapt however your ears seem fit. Hit up via the email listed at
the top with any suggestions or improvements to the tab. If you are going 
to post the solo but like my work, feel free to steal any or all of it just
give me some credit! 
************************************

| /   slide up
| \   slide down
| h   hammer-on
| p   pull-off
| ~   vibrato
| +   harmonic
| x   Mute note
| b   Bend
| pb  Pre-bend
| br  Bend release
| pbr Pre-bend release
| brb Bend release bend

************************************
Tap to rate this tab
# A B C D E F G H I J K L M N O P Q R S T U V W X Y Z