Cars - Youre All Ive Got Tonight tab

-------------------------------------------------------------------------------
			     You’re All I Got Tonight- Cars
-------------------------------------------------------------------------------
Tabbed by:Rob Yglesias
Email:rhamiyglesias@msn.com

Tuning: standard


*******************************************************************************
| /   slide up                                     | x   Mute note
| \   slide down                                   | b   Bend
| h   hammer-on                                    | pb  Pre-bend
| p   pull-off                                     | br  Bend release
| ~   vibrato                                      | pbr Pre-bend release
| +   harmonic                                     | brb Bend release bend
*******************************************************************************


intro with flange
Riff a
e|----------------------------------|-----------------------------------------|
B|----------------------------------|-----------------------------------------|
G|----------------------------------|-----------------------------------------|
D|----------------------------------|-------------9---------------------------|
A|--------9-9--------9-9--------9-9-|-------------7-9----------------7-8-9----|
E|--7x-7x-7-7--7x-7x-7-7--7x-7x-7-7-|-7x 7x-7x-7x---7--7x-7x-7x-7x---5-6-7----|

riff  b play 6 times        riff c
e|-------------------------|--------------------------------------------------|
B|-------------------------|--------------------------------------------------|
G|-------------------------|------------------------2-------------2--4b(5)--2~|
D|-----4---------4~--1h2~--|--4--2---4--2--------5--2----------5--2-----------|
A|-*9\-2--2-5~--2--2-------|--2--0---2--0--------5--0----------5--0-----------|
E|-------------------------|---------------3x-3x-3-------3x-3x-3--------------|
                 riff d
e|-------------|--------------------------------------------------------------|
B|-------------|--------------------------------------------------------------|
G|-------------|------7h8p7h8p7h8p7h8~-9-----------------------7h8p7h8p7h8-9--|
D|-------5---7-|-----------------------9-9---------------------------------9-9|
A|-------5---7-|-7-8-9-----------------7-9--------9x-9x--7-8-9-------------7-9|
E|-3x-3x-3---5-|-5-6-7-------------------7--7x-7x-7x-7x--5-6-7---------------7|
 
Fill 1                                       Fill 2
e|------------------------------------------|-9h10p9h10p9h10p9h10p9h10p9------|
B|------------------------------------------|----------------------------12\--|
G|-6(7)-6(7)-6p4--4~---4-2-1h2p1------------|---------------------------------|
D|---------------6--------------4-2~-4\5-4~-|---------------------------------|
A|------------------------------------------|---------------------------------|
E|------------------------------------------|---------------------------------|



Fill 3
e|--------------------------------------------------|
B|--------------------------------------------------|
G|-6(7)-6(7)--6-4~-4-4---6(7)br6-6-6-6p4----6p4--4~-|
D|--------------------------------------6------6----|
A|--------------------------------------------------|
E|--------------------------------------------------|

Fill 4
e|-12Br(14)(14)(13)-12-12p10---------7---------------------------|
B|--------------------------12-12~----10-7h8p7---7h8p7---10b(12)-|
G|---------------------------------------------9-------9---------|
D|---------------------------------------------------------------|
A|---------------------------------------------------------------|
E|---------------------------------------------------------------|


riff a
I don't care if you hurt me some more
I don't care if you even the score
riff b
You can knock me and I don't care
You can mock me and I don't care
You can rock me just about anywhere
It's alright
riff c   
'Cus you're all I've got tonight
You're all I've got tonight
You're all I've got tonight
riff d
need you tonight
riff a  with fill 1
I don't care if you use me again
riff a  with fill 2
I don't care if you abuse me again
riff b
You can make me I don't care
You can fake me I don't care
You can love me just about anywhere
It's alright
riff c
'Cus you're all I've got tonight
You're all I've got tonight
You're all I've got tonight
riff d
need you tonight
solo 1
   G               A                     G               A
e|----------------------------------------------------------------------------|
B|---------------------------10~-12b(13)---------------------------10---------|
G|--------7-9-7~---------9-11-------------------7-9-7~---------9-11-----------|
D|-5--7/9---9------7-9/11--11-------------5--7/9--9------7-9\11------9(10)br9~|
A|----------------------------------------------------------------------------|
E|----------------------------------------------------------------------------|


         G                 A              riff d    muted..................   
e|----------------------------------------10--11-12-|-------------------------|
B|-------------------------------------10-10--11-12-|-------------------------|
G|--------------------12-----------9-11----9--10-11-|-------------------------|
D|-----------------12-14-12~-7-9\11-------10--11-12-|-9-7h9p7-----------------|
A|-12-11-10-~-12\14---------------------------------|---------9--9-7-5h7p5----|
E|--------------------------------------------------|----------------------9~-|


riff a with fill 3
I don't want to feel sorry for you
riff a with fill 4
You don't have to make believe it's you
riff b
You can pump me I don't care
You can bump me I don't care
You can love me just about anywhere
It's alright
riff c  with fill 1
'Cus you're all I've got tonight
You're all I've got tonight
You're all I've got tonight
riff d
need you tonight
solo 2
e|----------------------------------------------------------------------------|
B|----------------------------------------------------------------------------|
G|----7-7-7-----9-9-9-9h10-9------7-7-7----9-9-9-----9b(11)-7-9p7--7h9--------|
D|----7-7-7-----9-9-9-9----9------7-7-7----9-9-9-----------------9------------|
A|-7h9-------7h9---------------7h9------7h9-----------------------------------|
E|----------------------------------------------------------------------------|

play 2 xs....................................................
e|----------------------------10-----------------------------|
B|-10b(12)-10-7-----------10b(12)--10-7----------------------|
G|-------------9b(11)p7~----------------9b(11)p7-9p7---7h9~--|
D|---------------------------------------------------9-------|
A|-----------------------------------------------------------|
E|-----------------------------------------------------------|

e|-----9-12~--9-12-9h12p9--9--------------------------------------------------|
B|---10------------------12-12-10--10-9h10p9---9------------------------------|
G|-11----------------------------11----------11--9h11p9--9-8h10p8-7h9p7-10p8-8|
D|-----------------------------------------------------11---------------------|
A|----------------------------------------------------------------------------|
E|----------------------------------------------------------------------------|

e|----------------------------------------------------------------------------|
B|---------------------------------------------------------------------------9|
G|--9p7-7~--10p8-8~--9p7-7~-----7-7-7~----7-7-7~---------------4--4~--6-4-6/8-|
D|---------------------------7h9-------7h9---------7h8-9~---4h6--6------------|
A|----------------------------------------------7h9---------------------------|
E|----------------------------------------------------------------------------|

e|--7~-9b(11)9----------------------------------------------------------------|
B|-9--------------------------------------------------------------4--4~-6-4---|
G|------------------4--4~--6-4~-6b(7)-6-4~--6b(7)-6-4~-6b(7)~--4h6--6---------|
D|---------------4h6--6-------------------------------------------------------|
A|----------------------------------------------------------------------------|
E|----------------------------------------------------------------------------|

e|-------------------------------------------------------------|
B|----7-9-9b(11)~----------------------------------------------|
G|-6/8------------------4-4--6-4~--6b(7)6p4--4--4b(6)p2--2-1-0-|
D|------------------4h6--6------------------6------------------|
A|-------------------------------------------------------------|
E|-------------------------------------------------------------|

riff c
'Cus you're all I've got tonight
You're all I've got tonight
You're all I've got tonight
riff d
need you tonight
I need you
Tonight 

Tap to rate this tab
 
# A B C D E F G H I J K L M N O P Q R S T U V W X Y Z