Cars - Just What I Needed tab

Well I found that the other tab was correct but too hard so this is how i play it and it 
sounds fine. It is super simplyfied

Verses:
e|------------------------------------------------|
B|------------------------------------------------|
G|-99999999---------------------------------------|
D|-99999999-99999999-1111111111111111--66666666---|
A|-77777777-99999999-1111111111111111--66666666---|
E|----------77777777--9-9-9-9-9-9-9-9--44444444---|

Chorus:
e|------------------------------------------------|
B|------------------------------------------------|
G|-9--------------9-------------------------------|
D|-9-9--77-11-9---9-9--77--11---------------------|
A|-7-9--77-11-9---7-9--77--11---------------------|
E|---7--55-9--7-----7--55--9----------------------|
Tap to rate this tab
 
# A B C D E F G H I J K L M N O P Q R S T U V W X Y Z