Song name
# A B C D E F G H I J K L M N O P Q R S T U V W X Y Z

Cars - Moving In Stereo tab

Help us improve GuitareTab! Take a short survey!
Tabbed by: sp!ff

This tab shouldn't be too hard to figure out. I'm just going to put up the basic parts 
it should be simple to piece them together based on the song.

Tuning: Standard

| /  slide up
| \  slide down
| h  hammer-on
| p  pull-off
| ~  vibrato
| +  harmonic
| x  Mute note

Intro:

e|-----------------------------|
b|-----------------------------|
g|-----9--7-----7-----11----9--|
a|-----9--7-----7-----11----9--|
d|-----7--5-----5-----9-----7--|
E|--0--------0-----0------0----|

e|------------------|
b|------------------|
g|-----9--7-----5~ -|
a|-----9--7-----5~ -|
d|-----7--5-----3~ -|
E|--0--------0------|

Main Riff:

e|-----------------------------|
b|-----------------------------|
g|-----9--7-----7-----11----9--|
a|-----9--7-----7-----11----9--|
d|-----7--5-----5-----9-----7--|
E|--0--------0-----0------0----|


e|-----------------------|
b|-----------------------|
g|-----9--7-----7-----9--|
a|-----9--7-----7-----9--|
d|-----7--5-----5-----7--|
E|--0--------0-----0-----|

e|-----------------------------|
b|-----------------------------|
g|-----9--7-----7-----11----9--|
a|-----9--7-----7-----11----9--|
d|-----7--5-----5-----9-----7--|
E|--0--------0-----0------0----|

e|----------------------------|
b|----------------------------|
g|-----9--7-----5-5-5-5-555---|
a|-----9--7-----5-5-5-5-555---|
d|-----7--5-----3-3-3-3-333---|
E|--0--------0----------------|


Lead Solo:

e|--------------------------------------------------------------|
b|--------------------------------------------------------------|
g|--16--14----------------------------16-14----------------19~--|
a|----------17--16--17-16--12--14~~ ---------17--16h17p16-------|
d|--------------------------------------------------------------|
E|--------------------------------------------------------------|

And later on you add:

e||--------------||
b||--------------||
g||--16--14------||
a||----------17--||
d||--------------||
E||--------------||x3

That's about it. I'm totally copping out on putting in fills. Please rate and leave comments!
Related for Moving In Stereo tab