Song name
# A B C D E F G H I J K L M N O P Q R S T U V W X Y Z

Cars - Let The Good Times Roll tab

The Cars - Let the Good Times Roll
Complete Greatest Hits

Opening Riff:
E-----------7-------------------------|
B-----------7-------------------------|
G-------------------------------------|  *Palm Muted
D-------------------------------------|
A---9-9-9-9---------------------------|
E---7-7-7-7---------------------------|
    * * * *

Main Riff 1:
E-----------7-------------------------|
B-----------7-------------------------|
G-------------------------------------|  *Palm Muted
D-------------------------------------|
A---9-9-9-9---------------------------|
E---7-7-7-7---------------------------|
    * * * *

Riff 2:
E-----------5-------------------------|
B-----------5-------------------------|
G-------------------------------------|  *Palm Muted
D-------------------------------------|
A---7-7-7-7---------------------------|
E---5-5-5-5---------------------------|
    * * * *

That's all I have. I'll try to figure out the rest later.
Tap to rate this tab
# A B C D E F G H I J K L M N O P Q R S T U V W X Y Z