Song name
# A B C D E F G H I J K L M N O P Q R S T U V W X Y Z

Cars - Here In My Car tab

Help us improve GuitareTab! Take a short survey!
E------------------------------------------------------------|
B------------------------------------------------------------|
G------------------------------------------------------------|
D------------------------------------------------------------|
A-----5-4----------5-4-----------5-4-------------2--------2--|
E---------3-5-5-5------3-5-5-5-------3-5-5-5--2-3--3--2-3--3-|

E------------------------------------------------------------|
B------------------------------------------------------------|
G------------------------------------------------------------|
D------------------------------------------------------------|
A-----5-4----------5-4-----------5-4-------------2--------2--|
E---------3-5-5-5------3-5-5-5-------3-5-5-5--2-3--3--2-3--3-|
This is how the song goes entirely and the only other part of the song is the keyboard 
So good luck I have tabbed this out myself and I can play it along with this song.  
give me feedback upon this tab.

-Anthony
Related for Here In My Car tab