Song name
# A B C D E F G H I J K L M N O P Q R S T U V W X Y Z

Cartel De Santa - La Pelotona tab

-------------------------------------------------------------------------------
			     La Pelotona - Cartel De Santa
-------------------------------------------------------------------------------
Tabbed by: Ernesto V.
Email: ernestov_87@yahoo.com.mx


its a new mexican band that sings hip-hip rap and this one is one of their first songs

Tuning: normal

e|---------------------------------------------------------------------------|
B|-------------0-----------------------------0---------------1---0-----------|
G|---------4-------------------0---------2---------------2-------------------| X2
D|---4/5-----------5-------2-------2/4---------------1-----------------------|
A|---------------------3-------------------------2---------------------------|
E|---------------------------------------------------------------------------|
most of the song is like this but with slighty changes


this is my first tab so hope you enjoy it any corrections to ernestov_87@yahoo.com.mx thanks

| /  slide up
| \  slide down
| h  hammer-on
| p  pull-off
| ~  vibrato
| +  harmonic
| x  Mute note
===============================================================================
Tap to rate this tab
# A B C D E F G H I J K L M N O P Q R S T U V W X Y Z