Song name
# A B C D E F G H I J K L M N O P Q R S T U V W X Y Z

Cartel De Santa - Todas Mueren Por Mi tab

INTRO
d-------------------------------------------|
A-------------------------------------------|
F-0-3-3/7-5--------------0-3-3/7-5----------|
C--------0-3-5-3-3/7-5--------0-3-5-3-3/7-5-|
G-------------------------------------------|
D-------------------------------------------|

d-------------------------------------------|
A-------------------------------------------|
F-0-3-3/7-5--------------0-3-3/7-5----------|
C--------0-3-5-3-3/7-5--------0-3-5-3-3/7-5-|
G-------------------------------------------|
D-------------------------------------------|
Tap to rate this tab
# A B C D E F G H I J K L M N O P Q R S T U V W X Y Z