Song name
# A B C D E F G H I J K L M N O P Q R S T U V W X Y Z

Cartel - Fiend tab

Help us improve GuitareTab! Take a short survey!
tuning:
1 whole step down

E-D
B-A
G-F
D-C
A-G
E-D

TUNING LOOKS WEIRD I KNOW BUT IT SOUNDS GREAT!

Intro
e|---0----0----0----0----0---|
B|---0----7----0----7----7---|
G|---8----8----8----8----8--o|
D|---9----9----9----9----9--o|
A|---9----9----9----9----0---|
E|---7----0----7----0----0---|

Chorus
e|---0-----0-------0----0-------0----0---------0---------0----|
B|---0-----0-------0----0-------0----0---------0---------0----|
G|---6-----1-------8----3-------6----1---------6---------3----|
D|---7-----2-------9----4-------7----2---------7---------4----|
A|---7-----2-------9----4-------7----2---------7---------4----|
E|---5-----0-------7----2-------5----0---------5---------2----|
    "Why  Didnt you come Back..  give.. whatever  You want"

e|---0----0----0----0----0---|
B|---0----7----0----7----7---|
G|---8----8----8----8----8--o|
D|---9----9----9----9----9--o|
A|---9----9----9----9----0---|
E|---7----0----7----0----0---|


Chorus
e|---0-----0-------0----0-------0----0---------0---------0----|
B|---0-----0-------0----0-------0----0---------0---------0----|
G|---6-----1-------8----3-------6----1---------6---------3----|
D|---7-----2-------9----4-------7----2---------7---------4----|
A|---7-----2-------9----4-------7----2---------7---------4----|
E|---5-----0-------7----2-------5----0---------5---------2----|
  " Why  Didnt you come Back..  give.. whatever  You want"


ALL DOWN STROKES 1X
e|---0-----0-------0----0-------0----0---------0---------0----|
B|---0-----0-------0----0-------0----0---------0---------0----|
G|---6-----1-------8----3-------6----1---------6---------3----|
D|---7-----2-------9----4-------7----2---------7---------4----|
A|---7-----2-------9----4-------7----2---------7---------4----|
E|---5-----0-------7----2-------5----0---------5---------2----|
"but this is just like everythin i told you he would say..."


e|--------------------------------|
B|--------------------------------|
G|--------------------------------|
D|--------------------------------|
A|---7-7--------------------------|
E|--5-5---------------------------|


e|-----5-------0---------7------2-------5------0------5------2----|
B|-----5-------0---------7------2-------5------0------5------2----|
G|-----6-------1---------8------3-------6------1------6------3----|
D|-----7-------2---------9------4-------7------2------7------4----|
A|--7--7----2--2------9--9---4--4----7--7---2--2---7--7---4--4----|
E|-5-5-5---0-0-0-----7-7-7--2-2-2---5-5-5--0-0-0--5-5-5--2-2-2----|


Chorus
e|---0-----0-------0----0-------0----0---------0---------0----|
B|---0-----0-------0----0-------0----0---------0---------0----|
G|---6-----1-------8----3-------6----1---------6---------3----|
D|---7-----2-------9----4-------7----2---------7---------4----|
A|---7-----2-------9----4-------7----2---------7---------4----|
E|---5-----0-------7----2-------5----0---------5---------2----|
  " Why  Didnt you come Back...give...whatever  You want"
Related for Fiend tab