Song name
# A B C D E F G H I J K L M N O P Q R S T U V W X Y Z

Cartel - A tab

Tabbed by: Brennan Caroline
Email: brennan-caroline@hotmail.com (feel free to send improvements, suggestions, etc.)

This is only the 2nd guitar part. 1st guitar on the way. Hopefully this gets you
the basics of the song.

Tuning: Drop D

   (0:01 - 0:13)
e|--------------------------------------------------------------------------|
b|--------------------------------------------------------------------------|
g|------------8~~~~~----5~~~~---3~~~~~--------------------------------------|
d|-3~~~~~-----8~~~~~----5~~~~---3~~~~~--------------------------------------|
a|-3~~~~~-----6~~~~~----3~~~~---1~~~~~--------------------------------------|
e|-3~~~~~-------------------------------------------------------------------|

Bass (0:14 - 0:27)
Guitar 1 (0:28 - 0:42)

   (0:42 - 0:55)  x4
e|--------------------------------------------------------------------------|
b|--------------------------------------------------------------------------|
g|-5-5-------5-5------------------------------------------------------------|
d|-5-5--6-6--5-5--6-6-------------------------------------------------------|
a|-3-3--6-6--3-3--6-6-------------------------------------------------------|
e|------6-6-------6-6--5-6-8------------------------------------------------|

   (0:56 - 1:09)
e|-----------------------------------------------------------------------------|
b|-----------------------------------------------------------------------------|
g|-8-8-8-8-8-8-8-8-------8~~~~~------------------------------------------------|
d|-x-x-x-x-x-x-x-x--(x3)--x~~~~~-----------------------------------------------|
a|-6-6-6-6-6-6-6-6-------6~~~~~------------------------------------------------|
e|-----------------------------------------------------------------------------|

Guitar 1 (1:10 -

   (1:23 - 1:37)
e|-----------------------------------------------------------------------------|
b|-----------------------------------------------------------------------------|
g|-5-5-------5-5-------------------5-5-------5-5-------------------------------|
d|-5-5--6-6--5-5--6-6---------(x3)--5-5--6-6--5-5--6-6-------------------------|
a|-3-3--6-6--3-3--6-6--------------3-3--6-6--3-3--6-6--------------------------|
e|------6-6-------6-6--5-6-8------------6-6-------6-6--5-6-8-5-----------------|

   (1:37 - 1:50)
e|--------------------------------------------------------------------------|
b|--------------------------------------------------------------------------|
g|--------------------------------------------------------------------------|
d|-3-3-3-3--6-6-6-6--1-1-1-1--8-8-8-8--3-3-3-3--6-6-6-6--1-1-1-1-1-1--------|
a|-3-3-3-3--6-6-6-6--1-1-1-1--8-8-8-8--3-3-3-3--6-6-6-6--1-1-1-1-1-1--------|
e|-3-3-3-3--6-6-6-6--1-1-1-1--8-8-8-8--3-3-3-3--6-6-6-6--1-1-1-1-1-1-5-6-8-5|
                                                                                         
                                                   ^

   (1:51 - 2:04)
e|--------------------------------------------------------------------------|
b|--------------------------------------------------------------------------|
g|--------------------------------------------------------------------------|
d|-3-3-3-3--6-6-6-6--1-1-1-1--8-8-8-8--3-3-3-3--6-6-6-6--1~-1~-1~-1~--------|
a|-3-3-3-3--6-6-6-6--1-1-1-1--8-8-8-8--3-3-3-3--6-6-6-6--1~-1~-1~-1~--------|
e|-3-3-3-3--6-6-6-6--1-1-1-1--8-8-8-8--3-3-3-3--6-6-6-6--1~-1~-1~-1~-5-6-8-5|

   (2:05 - 4:32)  x10
e|--------------------------------------------------------------------------|
b|--------------------------------------------------------------------------|
g|--------------------------------------------------------------------------|
d|-3-3-3-3--6-6-6-6--1-1-1-1--8-8-8-8--3-3-3-3--6-6-6-6--1-1-1-1-1-1-1-1----|
a|-3-3-3-3--6-6-6-6--1-1-1-1--8-8-8-8--3-3-3-3--6-6-6-6--1-1-1-1-1-1-1-1----|
e|-3-3-3-3--6-6-6-6--1-1-1-1--8-8-8-8--3-3-3-3--6-6-6-6--1-1-1-1-1-1-1-1----|

^ (Palm Mute)
Tap to rate this tab
 
# A B C D E F G H I J K L M N O P Q R S T U V W X Y Z