Song name
# A B C D E F G H I J K L M N O P Q R S T U V W X Y Z

Cartel - Honetsly tab

99.9% sure this is right

Ok I'm only going to post a little because I don't have a lot  of time left I 
will finish the rest later

Guitar 1 is drop D
Guitar 2 is standard

Intro

Guitar 1
|--6-4---------------|
|------7-6-4-6-4-----|
|-----------------6--|
|--------------------|
|--------------------|
|--------------------|

Verse:

Guitar 1
|------------------------------------------------|
|------------------------------------------------|
|------------------------------------------------|
|-44--55--55--44--44--55--55--55--44--44--44--44-|
|-44--55--55--44--44--55--55--55--44--44--44--44-|
|-44--55--33--22--44--55--33--33--22--22--22--22-|

Guitar 2
|--------------------|
|--------------------|
|-6------------------|
|-x------------------|
|-4------------------|
|--------------------|

Guitar 1
|-------------------------|
|-------------------------|
|----------------6--------|
|-8--6--4--8--6--6--------|
|-8--6--4--8--6--4--------|
|-8--6--4--8--6-----------|
                 -
Tap to rate this tab
# A B C D E F G H I J K L M N O P Q R S T U V W X Y Z