Song name
# A B C D E F G H I J K L M N O P Q R S T U V W X Y Z

Cartel - Faster Ride tab

Faster Ride by Cartel
Standard Tuning

Intro / Verses

E) ------------------------------------------------------------------------|
B) ------------------------------------------------x-4-4---4---------------|
G) -----------------------------------x-1-1---1----x-4-4---4---------------|
D) ------x-4-6--6---4-6--6--x-6-x-6---x-2-2---2----x-4-4---4---------------|
A) ------x-0-0--0---0-0--0--x-0-x-0---x-2-2---2----x-6-6---6---------------|
E) (17\\)-----------------------------x-0-0---0----------------------------|
     ^^Only intro


       A green light, unkind   Nowhere to go on a one track mind
      It's a break down at the wrong time
                                I'm catching up but I'm still behind
 We did it right, we did it right for some time
                                  But I looked up and you were gone
We did it right, we did it right for some time
                                  I couldn't give you what you want

Chorus

E) -------------------------------------------------------------------------|
B) -------------------------------------------------------------------------|
G) -2-2-2-2-2-2-2-2-2-2-2-2-2-2-2-2-----------------4-4-4-4-4-4-4-4---------|
D) -2-2-2-2-2-2-2-2-2-2-2-2-2-2-2-2-2-2-2-2-2-2-2-2-4-4-4-4-4-4-4-4---------|
A) -0-0-0-0-0-0-0-0-0-0-0-0-0-0-0-0-2-2-2-2-2-2-2-2-2-2-2-2-2-2-2-2---------|
E) ---------------------------------0-0-0-0-0-0-0-0-------------------------|

Cause you just want to take a faster ride
Lower lows, higher highs
Get it, get it, go until you get it right
And I hope you find it
Cause you just want to take a faster ride
Lower lows, higher highs
But you just got to kiss me one more time
So just kiss me goodbye

Bridge

E) -------------------------------------------------------------------------|
B) -------------------------------------------------------------------------|
G) -6-6-10-10---------------------6-6--10-10--------------------------------|
D) -6-6-10-10---10-10---10---10---6-6--10-10--10-10---10---10---------------|
A) -4-4-7--7----10-10---10---10---4-4--7--7---10-10---10---10---------------|
E) -------------7--7----7----7----------------7--7----7----7----------------|

                        So now you're moving on (you're moving on)

E) -------------------------------------------------------------------------|
B) -------------------------------------------------------------------------|
G) -6-6-10-10---------------------------------------------------------------|
D) -6-6-10-10---10-10---10---10----7-7-7-7-7-7-7-7-7-7-7-7-7-7-7-7----------|
A) -4-4-7--7----10-10---10---10----7-7-7-7-7-7-7-7-7-7-7-7-7-7-7-7----------|
E) -------------7--7----7----7-----5-5-5-5-5-5-5-5-5-5-5-5-5-5-5-5----------|

With no regrets (with no regrets)
                           But I'm still hanging on (I'm hanging on)

E) ---------------------------------------------------------------------------|
B) ---------------------------------------------------------------------------|
G) -6-6-6-6-6-6-6-6-----------------------------------------------------------|
D) -6-6-6-6-6-6-6-6----10-10-10-10-10-10-10-10-10----7-7----------------------|
A) -4-4-4-4-4-4-4-4----10-10-10-10-10-10-10-10-10----7-7----------------------|
E) --------------------7--7--7--7--7--7--7--7--7-----5-5----------------------|

     To every word you said (to every word you said)

[Insert Bass Riff during part of Chorus]


Chorus

E) -------------------------------------------------------------------------|
B) -------------------------------------------------------------------------|
G) -2-2-2-2-2-2-2-2-2-2-2-2-2-2-2-2-----------------4-4-4-4-4-4-4-4---------|
D) -2-2-2-2-2-2-2-2-2-2-2-2-2-2-2-2-2-2-2-2-2-2-2-2-4-4-4-4-4-4-4-4---------|
A) -0-0-0-0-0-0-0-0-0-0-0-0-0-0-0-0-2-2-2-2-2-2-2-2-2-2-2-2-2-2-2-2---------|
E) ---------------------------------0-0-0-0-0-0-0-0-------------------------|

Cause you just want to take a faster ride
Lower lows, higher highs
Get it, get it, go until you get it right
And I hope you find it
Cause you just want to take a faster ride
Lower lows, higher highs
But you just got to kiss me one more time
So just kiss me goodbye


[Fade out]
Tap to rate this tab
# A B C D E F G H I J K L M N O P Q R S T U V W X Y Z