Song name
# A B C D E F G H I J K L M N O P Q R S T U V W X Y Z

Cartel - The Perfect Mistake tab

Tabbed by Sean :D

No one tabbed this song yet. It was easy to cover this song..... SO try it :P. Cartel ROCKS \m/

    Intro

    E |--------------------------------------|
    B |--------------------------------------|
    G |-----------7---9---9------------------|
    D |--XXX--00--x---x---x------------------|
    A |--XXX--00--5---7---11-----------------|
    D |--XXX--00-----------------------------|

x2 The 2nd repition has no mute
    E |-------------------------------------------|
    B |-------------------------------------------|
    G |-----------7---9---7-----------------------|
    D |-------00--x---x---x-----------------------|
    A |-------00--5---7---5-----------------------|
    D |-------00----------------------------------|

  Verse 1      (The verses are Palm muted Except 7/5, 7/9, 9/11)

    E |--------------------------------------------------|
    B |--------------------------------------------------|
    G |------5-------5--------------5-------7----9---11--|
    D |------5-x16---5-x16--5-------5-x16---x----x---x---|
    A |------7-------3------5--x16--7-------5----7---9---|
    D |---------------------5----------------------------|

    E |--------------------------------------------------|
    B |--------------------------------------------------|
    G |------5-------5--------------5--------------------|
    D |------5-x16---5-x16--5-------5-x16----------------|
    A |------7-------3------5--x16--7--------------------|
    D |---------------------5----------------------------|


     Pre Chorus

    E |-------------------------------------------|
    B |-------------------------------------------|
    G |-------------------------------------------|
    D |---2----------------5----------------------|
    A |---2----------------5----------------------|
    D |---2----------------5----------------------|

     Chorus

    E |-------------------------------------------|
    B |-------------------------------------------|
    G |-------------------------------------------|
    D |-----0------5-----9-----5------------------|       X2
    A |-----0-X8---5-X8--9-X8--5-X8---------------|
    D |-----0------5-----9-----5------------------|


    E |-------------------------------------------|
    B |-------------------------------------------|
    G |-------------------------------------------|
    D |-----00---55---9999---5555-----------------|
    A |-----00---55---9999---5555-----------------|
    D |-----00---55---9999---5555-----------------|


    E |-------------------------------------------|
    B |-------------------------------------------|
    G |-------------------------------------------|
    D |-----0------5-----9-----5------------------|
    A |-----0-X8---5-X8--9-X8--5-X8---------------|
    D |-----0------5-----9-----5------------------|


Intro

    E |-------------------------------------------|
    B |-------------------------------------------|
    G |-------------7---9---9---------------------|
    D |--------00---x---x---x---------------------|
    A |--------00---5---7---11--------------------|
    D |--------00---------------------------------|

    E |-------------------------------------------|
    B |-------------------------------------------|
    G |-----------7---9---7-----------------------|
    D |-------00--x---x---x-----------------------|
    A |-------00--5---7---5-----------------------|
    D |-------00----------------------------------|

     Verse 2      (The verses are Palm muted)

    E |--------------------------------------------------|
    B |--------------------------------------------------|
    G |------5-------5--------------5-------7----9---11--|
    D |------5-x16---5-x16--5-------5-x16---x----x---x---|
    A |------7-------3------5--x16--7-------5----7---9---|
    D |---------------------5----------------------------|

    E |--------------------------------------------------|
    B |--------------------------------------------------|
    G |------5-------5--------------5--------------------|
    D |------5-x16---5-x16--5-------5-x16----------------|
    A |------7-------3------5--x16--7--------------------|
    D |---------------------5----------------------------|

  Pre Chorus

    E |-------------------------------------------|
    B |-------------------------------------------|
    G |-------------------------------------------|
    D |---2----------------5----------------------|
    A |---2----------------5----------------------|
    D |---2----------------5----------------------|


    Chorus

    E |-------------------------------------------|
    B |-------------------------------------------|
    G |-------------------------------------------|
    D |-----0------5-----9-----5------------------|       X2
    A |-----0-X8---5-X8--9-X8--5-X8---------------|
    D |-----0------5-----9-----5------------------|


    E |-------------------------------------------|
    B |-------------------------------------------|
    G |-------------------------------------------|
    D |-----00---55---9999---5555-----------------|
    A |-----00---55---9999---5555-----------------|
    D |-----00---55---9999---5555-----------------|


    E |-------------------------------------------|
    B |-------------------------------------------|
    G |-------------------------------------------|
    D |-----0------5-----9-----5------------------|
    A |-----0-X8---5-X8--9-X8--5-X8---------------|
    D |-----0------5-----9-----5------------------|


     Bridge

    E |-----------------------------------------------------------------|
    B |-----------------------------------------------------------------|
    G |-----------------------------------------------------------------|
    D |-----77777777777777---1010101010101010101010---------------------|
    A |-----77777777777777---1010101010101010101010---------------------|
    D |-----77777777777777---1010101010101010101010---------------------|


    E |-------------------------------------------|
    B |-------------------------------------------|
    G |-------------7---9---9---------------------|
    D |--------00---x---x---x---------------------|
    A |--------00---5---7---11--------------------|
    D |--------00---------------------------------|


    E |-------------------------------------------|
    B |-------------------------------------------|
    G |-----------7---9---7-----------------------|
    D |-------00--x---x---x-----------------------|
    A |-------00--5---7---5-----------------------|
    D |-------00----------------------------------|

     E |-------------------------------------------------------------------|
    B |--------------------------------------------------------------------|
    G |--------------------------------------------------------------------|
    D |-----77777777777777---1010101010101010101010------------------------|
    A |-----77777777777777---1010101010101010101010------------------------|
    D |-----77777777777777---1010101010101010101010------------------------|

    E |-------------------------------------------|
    B |-------------------------------------------|
    G |-------------7---9---9---------------------|
    D |--------00---x---x---x---------------------|
    A |--------00---5---7---11--------------------|
    D |--------00---------------------------------|

Repeat X4
    E |-------------------------------------------|
    B |-------------------------------------------|
    G |-----------7---9---7-----------------------|
    D |-------00--x---x---x-----------------------|
    A |-------00--5---7---5-----------------------|
    D |-------00----------------------------------|

         Palm Mute

    E |--------------------------------------------------|
    B |--------------------------------------------------|
    G |------5-------5--------------5--------------------|
    D |------5-x16---5-x16--5-------5-x16----------------|
    A |------7-------3------5--x16--7--------------------|
    D |---------------------5----------------------------|


     Chorus

    E |-------------------------------------------|
    B |-------------------------------------------|
    G |-------------------------------------------|
    D |-----0------5-----9-----5------------------|       X2
    A |-----0-X8---5-X8--9-X8--5-X8---------------|
    D |-----0------5-----9-----5------------------|


    E |-------------------------------------------|
    B |-------------------------------------------|
    G |-------------------------------------------|
    D |-----00---55---9999---5555-----------------|
    A |-----00---55---9999---5555-----------------|
    D |-----00---55---9999---5555-----------------|


    E |-------------------------------------------|
    B |-------------------------------------------|
    G |-------------------------------------------|
    D |-----0------5-----9-----5------------------|
    A |-----0-X8---5-X8--9-X8--5-X8---------------|
    D |-----0------5-----9-----5------------------|
Tap to rate this tab
 
# A B C D E F G H I J K L M N O P Q R S T U V W X Y Z