Song name
# A B C D E F G H I J K L M N O P Q R S T U V W X Y Z

Cartel - Wonderwall tab

Piano Intro (has a delay.  Delay notes in parenthesis)
Repeat several times
e-----10----(10)-------10----(10)-----|
b---8----(8)---------8----(8)-----7---|
g-9----------------9------------------|
d-------------------------------------|
a-------------------------------------|
e-------------------------------------|

Guitar w/ effect
Plays through first part of verse as well.
e-------------------------------------|
b-4~--7~-----7~---------------7~------|
g--------5~------7~-------5~------7~--|
d---------------------7~--------------|
a-------------------------------------|
e-------------------------------------|

Verse:  Guitar
First time
e-------------------------|
b-------------------------|
g-7--7-7-7--7-------------|
d-7--7-7-7--7-7--7-7--7-7-|
a-5--5-5-5--5-7--7-7--7-7-|
e-------------5--5-5--5-5-|

Rest of way
e----------------------------------------------|
b----------------------------------------------|
g---------------------7-7-7-7-7--7-------------|
d-2-2-2--2-5-5-5-5-5--7-7-7-7-7--7-7--7-7-7-7--|
a-2-2-2--2-5-5-5-5-5--5-5-5-5-5--5-7--7-7-7-7--|
e-0-0-0--0-3-3-3-3-3---------------5--5-5-5-5--|

Pre-Chorus
Rhythm (2x)
e--------------------------------------------|
b--------------------------------------------|
g-5--5-5-5--5-5------------------------------|
d-5--5-5-5--5-5-5--5-5-5--5-5-2--2-2-2-2-2-2-|
a-3--3-3-3--3-3-5--5-5-5--5-5-2--2-2-2-2-2-2-|
e---------------3--3-3-3--3-3-0--0-0-0-0-0-0-|

Third time
e------------------------------------------------------------------|
b------------------------------------------------------------------|
g-5--5-5-5--5-5-----------5--5-5-----------------------------------|
d-5--5-5-5--5-5-5--5-5-5--5--5-5-5--5-5-2--2-2-5--5-5-7--7-7-7-7-7-|
a-3--3-3-3--3-3-5--5-5-5--3--3-3-5--5-5-2--2-2-5--3-3-7--7-7-7-7-7-|
e---------------3--3-3-3---------3--3-3-0--0-0-3--3-3-5--5-5-5-5-5-|

Lead Guitar (small fill after vocals in pre-chorus)
e------------------|
b------------------|
g------------------|
d-----4---5-5----5-|
a---5---5------5---|
e-3----------------|

Last fill before chorus
e---------------------|
b---------5-----5-----|
g-----7-----7-----7---| 2x
d---5---5-----5-----5-|
a-7-------------------|
e---------------------|

Chorus
Rhythm
e--------------------------------------------|
b--------------------------------------------|
g-5-5-5-5-5----------------------------------|
d-5-5-5-5-5--2-2-2-2-2--5-5-5-5-5--2-2-2-2-2-|
a-3-3-3-3-3--2-2-2-2-2--5-5-5-5-5--2-2-2-2-2-|
e------------0-0-0-0-0--3-3-3-3-3--0-0-0-0-0-|

Lead Riff
e-10-----------|
b---12---10----|
g-----12----12-|
d--------------|
a--------------|
e--------------|

2nd Verse
Rhythm is same

Lead Guitar
Hard to make out lead with all the distortion and effects.

Pre-Chorus
Chorus

Solo (When I have time, I'll tab out the solo.
Lead

Rhythm guitar in solo plays chorus chords

Outro
Piano (several times)
e-----------15-12-|
b-15--12-13-------|
g-----------------|

End on
e----------|
b----------|
g----------|
d-2--2--2~-|
a-2--2--2~-|
e-0--0--0~-|
Tap to rate this tab
 
# A B C D E F G H I J K L M N O P Q R S T U V W X Y Z