Song name
# A B C D E F G H I J K L M N O P Q R S T U V W X Y Z

Cartel - The Perfect Mistake tab

Cartel - Perfect Mistake guitar tab
By Joe H.  


Intro

    D# |--------------------------------------|
    A# |--------------------------------------|
    F# |-----------7---9---9------------------|
    C# |--XXX--00--x---x---x------------------|
    G# |--XXX--00--5---7---11-----------------|
    C# |--XXX--00-----------------------------|


    D# |-------------------------------------------|
    A# |-------------------------------------------|   
    F# |-----------7---9---7-----------------------|  x2
    C# |-------00--x---x---x-----------------------|
    G# |-------00--5---7---5-----------------------|
    C# |-------00----------------------------------|

  Verse 1      

    D# |--------------------------------------------------|
    A# |--------------------------------------------------|
    F# |------7-------5--------------7-------7----9---11--|
    C# |------7-x16---5-x16--5-------7-x16---x----x---x---|
    G# |------5-------3------5--x16--5-------5----7---9---|
    C# |---------------------5----------------------------|

    D# |--------------------------------------------------|
    A# |--------------------------------------------------|
    F# |------7-------5--------------7--------------------|
    C# |------7-x16---5-x16--5-------7-x16----------------|
    G# |------5-------3------5--x16--5--------------------|
    C# |---------------------5----------------------------|


     Pre Chorus

    D# |-------------------------------------------|
    A# |-------------------------------------------|
    F# |-------------------------------------------|
    C# |---2----------------5----------------------|
    G# |---2----------------5----------------------|
    C# |---2----------------5----------------------|

     Chorus

    D# |-------------------------------------------|
    A# |-------------------------------------------|
    F# |-----7------------5------------------------|
    C# |-----7------5-----5-----5------------------|       X2
    G# |-----5-X8---5-X8--3-X8--5-X8---------------|
    C# |------------5-----------5------------------|


    D# |-------------------------------------------|
    A# |-------------------------------------------|
    F# |---------------5555------------------------|
    C# |-----00---55---5555---5555-----------------|
    G# |-----00---55---3333---5555-----------------|
    C# |-----00---55----------5555-----------------|


    D# |-------------------------------------------|
    A# |-------------------------------------------|
    F# |-----7------------5------------------------|
    C# |-----7------5-----5-----5------------------|
    G# |-----5-X8---5-X8--3-X8--5-X8---------------|
    C# |------------5-----------5------------------|


Intro

    D# |-------------------------------------------|
    A# |-------------------------------------------|
    F# |-------------7---9---9---------------------|
    C# |--------00---x---x---x---------------------|
    G# |--------00---5---7---11--------------------|
    C# |--------00---------------------------------|

    D# |-------------------------------------------|
    A# |-------------------------------------------|
    F# |-----------7---9---7-----------------------|
    C# |-------00--x---x---x-----------------------|
    G# |-------00--5---7---5-----------------------|
    C# |-------00----------------------------------|

     Verse 2      

    D# |--------------------------------------------------|
    A# |--------------------------------------------------|
    F# |------7-------5--------------7-------7----9---11--|
    C# |-pm---7-x16---5-x16--5-------7-x16---x----x---x---|
    G# |------5-------3------5--x16--5-------5----7---9---|
    C# |---------------------5----------------------------|

    D# |--------------------------------------------------|
    A# |--------------------------------------------------|
    F# |------7-------5--------------7--------------------|
    C# |------7-x16---5-x16--5-------7-x16----------------|
    G# |------5-------3------5--x16--5--------------------|
    C# |---------------------5----------------------------|

  Pre Chorus

    D# |-------------------------------------------|
    A# |-------------------------------------------|
    F# |-------------------------------------------|
    C# |---2----------------5----------------------|
    G# |---2----------------5----------------------|
    C# |---2----------------5----------------------|


    Chorus

    D# |-------------------------------------------|
    A# |-------------------------------------------|
    F# |-----7------------5------------------------|
    C# |-----7------5-----5-----5------------------|       X2
    G# |-----5-X8---5-X8--3-X8--5-X8---------------|
    C# |------------5-----------5------------------|


    D# |-------------------------------------------|
    A# |-------------------------------------------|
    F# |---------------5555------------------------|
    C# |-----00---55---5555---5555-----------------|
    G# |-----00---55---3333---5555-----------------|
    C# |-----00---55----------5555-----------------|


    D# |-------------------------------------------|
    A# |-------------------------------------------|
    F# |-----7------------5------------------------|
    C# |-----7------5-----5-----5------------------|
    G# |-----5-X8---5-X8--3-X8--5-X8---------------|
    C# |------------5-----------5------------------|


     Bridge

    D# |-----------------------------------------------------------------|
    A# |-----------------------------------------------------------------|
    F# |-----------------------------------------------------------------|
    C# |-----77777777777777---1010101010101010101010---------------------|
    G# |-----77777777777777---1010101010101010101010---------------------|
    C# |-----77777777777777---1010101010101010101010---------------------|


    D# |-------------------------------------------|
    A# |-------------------------------------------|
    F# |-------------7---9---9---------------------|
    C# |--------00---x---x---x---------------------|
    G# |--------00---5---7---11--------------------|
    C# |--------00---------------------------------|


    D# |-------------------------------------------|
    A# |-------------------------------------------|
    F# |-----------7---9---7-----------------------|
    C# |-------00--x---x---x-----------------------|
    G# |-------00--5---7---5-----------------------|
    C# |-------00----------------------------------|

    D# |-------------------------------------------------------------------|
    A# |-------------------------------------------------------------------|
    F# |-------------------------------------------------------------------|
    C# |-----77777777777777---1010101010101010101010-----------------------|
    G# |-----77777777777777---1010101010101010101010-----------------------|
    C# |-----77777777777777---1010101010101010101010-----------------------|

    D# |-------------------------------------------|
    A# |-------------------------------------------|
    F# |-------------7---9---9---------------------|
    C# |--------00---x---x---x---------------------|
    G# |--------00---5---7---11--------------------|
    C# |--------00---------------------------------|

Repeat X4
    D# |-------------------------------------------|
    A# |-------------------------------------------|
    F# |-----------7---9---7-----------------------|
    C# |-------00--x---x---x-----------------------|
    G# |-------00--5---7---5-----------------------|
    C# |-------00----------------------------------|

         Palm Mute

    D# |--------------------------------------------------|
    A# |--------------------------------------------------|
    F# |------7-------5--------------7--------------------|
    C# |------7-x16---5-x16--5-------7-x16----------------|
    G# |------5-------3------5--x16--5--------------------|
    C# |---------------------5----------------------------|


     Chorus

    D# |-------------------------------------------|
    A# |-------------------------------------------|
    F# |-----7------------5------------------------|
    C# |-----7------5-----5-----5------------------|       X2
    G# |-----5-X8---5-X8--3-X8--5-X8---------------|
    C# |------------5-----------5------------------|


    D# |-------------------------------------------|
    A# |-------------------------------------------|
    F# |---------------5555------------------------|
    C# |-----00---55---5555---5555-----------------|
    G# |-----00---55---3333---5555-----------------|
    C# |-----00---55----------5555-----------------|


    D# |-------------------------------------------|
    A# |-------------------------------------------|
    F# |-----7------------5------------------------|
    C# |-----7------5-----5-----5------------------|
    G# |-----5-X8---5-X8--3-X8--5-X8---------------|
    C# |------------5-----------5------------------|
Tap to rate this tab
 
# A B C D E F G H I J K L M N O P Q R S T U V W X Y Z