Song name
# A B C D E F G H I J K L M N O P Q R S T U V W X Y Z

Cartel - Matter Of Time tab

  Song: Matter Of Time
 Album: Chroma
Artist: Cartel
-------------------------------------------------------------------------------
Tabbed by: Hunter Morris
Email: hunterbmorris@gmail.com

Tuning: Drop Db (Db Ab Db Gb Bb eb)


Verse:
  eb|-------------------------------------------------------------------|
  Bb|--7-7-7-7-7-7-7-7-----------------7-7-7-7-7-7-7-7-7-7-7-7-5-5-5-5--|
  Gb|--7-7-7-7-7-7-7-7-7-7-7-6-6-6-6-7-7-7-7-7-7-7-7-7-7-7-7-7-7-7-7-7--|
  Db|--7-7-7-7-7-7-7-7-5-5-5-5-5-5-5-5-7-7-7-7-7-7-7-7-7-7-7-7-7-7-7-7--|
  Ab|--x-x-x-x-x-x-x-x-5-5-5-5-5-5-5-5-5-5------------------------------|
  Eb|--9-9-9-9-9-9-9-9-5-5-5-5-5-5-5-5----------------------------------|

  eb|-------------------------------------------------------------------|
  Bb|--7-7-7-7-7-7-7-7-----------------7-7-7-7-7-7-7-7-7-7-7-7-5-5-5-5--|
  Gb|--7-7-7-7-7-7-7-7-7-7-7-6-6-6-6-6-7-7-7-7-7-7-7-7-7-7-7-7-7-7-7-7--|
  Db|--7-7-7-7-7-7-7-7-5-5-5-5-5-5-5-5-7-7-7-7-7-7-7-7-7-7-7-7-7-7-7-7--|
  Ab|--x-x-x-x-x-x-x-x-5-5-5-5-5-5-5-5-5-5------------------------------|
  Eb|--9-9-9-9-9-9-9-9-5-5-5-5-5-5-5-5----------------------------------|


  eb|----------2---------------2-------------2--3-2----2-2-3---5---0----|
  Bb|-----3--------------3--------------3-------------------------------|
  Gb|2---------------4---------------2----------------------------------|
  Db|-------------------------------------------------------------------|
  Ab|-------------------------------------------------------------------|
  Eb|-------------------------------------------------------------------|


Chorus:
  eb|-------------------------------------------------------------------|
  Bb|-------------------------------------------------------------------|
  Gb|-------------------------------------------------------------------|
  Db|--9-9-9-9-9-9-9-9-5-5-5-5-5-5-5-5-0-0-0-0-0-0-0-0-7-7-7-7-7-7-7-7--|
  Ab|--9-9-9-9-9-9-9-9-5-5-5-5-5-5-5-5-0-0-0-0-0-0-0-0-7-7-7-7-7-7-7-7--|
  Eb|--9-9-9-9-9-9-9-9-5-5-5-5-5-5-5-5-0-0-0-0-0-0-0-0-7-7-7-7-7-7-7-7--|


End:
  eb|-----------------------------------|
  Bb|-----------------------------------|
  Gb|-----------------------------------|  Play at about 95 bpm, speed up to about
  Db|--5-5---9-9---7-7---7-7----7---7---|  125 after playing 1.5 times
  Ab|--5-5---9-9---7-7---7-7----7---7---|
  Eb|--5-5---9-9---7-7---7-7----7---7---|

  eb|-----------------------------------|
  Bb|-----------------------------------|
  Gb|-----------------------------------|
  Db|--5-5-5-9-9-9-7-7-7-7-7-7-7-7-7-7--|
  Ab|--5-5-5-9-9-9-7-7-7-7-7-7-7-7-7-7--|
  Eb|--5-5-5-9-9-9-7-7-7-7-7-7-7-7-7-7--|
Tap to rate this tab
 
# A B C D E F G H I J K L M N O P Q R S T U V W X Y Z