Song name
# A B C D E F G H I J K L M N O P Q R S T U V W X Y Z

Cartel - Runaway tab

  Song: Runaway
 Album: Chroma
Artist: Cartel
-------------------------------------------------------------------------------
Tabbed by: Hunter Morris
Email: hunterbmorris@gmail.com

Tuning: Half-Step Down (Eb Ab Db Gb Bb eb)


Verse 1:
  eb|--------------------------------------------------------------------|
  Bb|--------------------------------------------------------------------|
  Gb|--9999999999999999999999999999999999999999999999999999999999999999--|
  Db|--9999999999999999999999999999999999999999999999999999999999999999--|
  Ab|--xxxxxxxxxxxxxxxx9999999999999999xxxxxxxxxxxxxxxx0000000000000000--|
  Eb|--9999999999999999----------------9999999999999999------------------|
       _________________________________________________________________    PM

  eb|----------------------------------------------------0~~~~~~~~~~~~~--|
  Bb|----------------------------------------------------0~~~~~~~~~~~~~--|
  Gb|--999999999999999999999999999999999999999999999999--2~~~~~~~~~~~~~--|
  Db|--999999999999999999999999999999999999999999999999--2~~~~~~~~~~~~~--|
  Ab|--xxxxxxxxxxxxxxxx9999999999999999xxxxxxxxxxxxxxxx--0~~~~~~~~~~~~~--|
  Eb|--9999999999999999----------------9999999999999999------------------|
       ________________________________________________                     PM

Chorus 1:
  eb|--0~~~~~~~~~~~~~~-0~~~~~~~~~~~~~~-0~~~~~~~~~~~~~~-0-----------------|
  Bb|--0~~~~~~~~~~~~~~-0~~~~~~~~~~~~~~-0~~~~~~~~~~~~~~-0-----------------|
  Gb|--1~~~~~~~~~~~~~~-x~~~~~~~~~~~~~~-x---------------x-----------------|
  Db|--2~~~~~~~~~~~~~~-7~~~~~~~~~~7~~~-4~~~~~~~~~~~~~~-7---99--1111--99--|
  Ab|--2~~~~~~~~~~~~~~-7~~~~~~~~~~7~~~-4~~~~~~~~~~~~~~-7---99--1111--99--|
  Eb|--0~~~~~~~~~~~~~~-5~~~~~~5~~~4~~~-2~~~~~~~~~~~~~~-5---77--9-9---77--|

Transition:
  eb|--------------------|
  Bb|--------------------|
  Gb|--9999999999999999--|
  Db|--9999999999999999--|
  Ab|--7777777777777777--|
  Eb|--------------------|
       ________________     PM

Verse 2:
  eb|--------------------------------------------------------------------|
  Bb|--------------------------------------------------------------------|
  Gb|--9999999999999999999999999999999999999999999999999999999999999999--|
  Db|--9999999999999999999999999999999999999999999999999999999999999999--|
  Ab|--xxxxxxxxxxxxxxxx9999999999999999xxxxxxxxxxxxxxxx0000000000000000--|
  Eb|--9999999999999999----------------9999999999999999------------------|
       _________________________________________________________________    PM

  eb|----------------------------------------------------00000000000000--|
  Bb|----------------------------------------------------00000000000000--|
  Gb|--999999999999999999999999999999999999999999999999--22222222222222--|
  Db|--999999999999999999999999999999999999999999999999--22222222222222--|
  Ab|--xxxxxxxxxxxxxxxx9999999999999999xxxxxxxxxxxxxxxx--00000000000000--|
  Eb|--9999999999999999----------------9999999999999999------------------|
       __ ___ ___ ___  __ ___ ___ ___  __ ___ ___ ___                     PM (Listen for pattern)

Chorus 2:
  eb|--0~~~~~~~~~~~~~~-0~~~~~~~~~~~~~~-0~~~~~~~~~~~~~~-0-----------------|
  Bb|--0~~~~~~~~~~~~~~-0~~~~~~~~~~~~~~-0~~~~~~~~~~~~~~-0-----------------|
  Gb|--1~~~~~~~~~~~~~~-x~~~~~~~~~~~~~~-x---------------x-----------------|
  Db|--2~~~~~~~~~~~~~~-7~~~~~~~~~~7~~~-4~~~~~~~~~~~~~~-7---99--1111--99--|
  Ab|--2~~~~~~~~~~~~~~-7~~~~~~~~~~7~~~-4~~~~~~~~~~~~~~-7---99--1111--99--|
  Eb|--0~~~~~~~~~~~~~~-5~~~~~~5~~~4~~~-2~~~~~~~~~~~~~~-5---77--9-9---77--|

  eb|--0~~~~~~~~~~~~~~-0~~~~~~~~~~~~~~-0~~~~~~~~~~~~~~-0-----------------|
  Bb|--0~~~~~~~~~~~~~~-0~~~~~~~~~~~~~~-0~~~~~~~~~~~~~~-0-----------------|
  Gb|--1~~~~~~~~~~~~~~-x~~~~~~~~~~~~~~-x---------------x-----------------|
  Db|--2~~~~~~~~~~~~~~-7~~~~~~~~~~7~~~-4~~~~~~~~~~~~~~-7---99--1111--99--|
  Ab|--2~~~~~~~~~~~~~~-7~~~~~~~~~~7~~~-4~~~~~~~~~~~~~~-7---99--1111--99--|
  Eb|--0~~~~~~~~~~~~~~-5~~~~~~5~~~4~~~-2~~~~~~~~~~~~~~-5---77--9-9---77--|

Solo: (Starting at the second half of the chorus)
  eb|------------------------------------------|
  Bb|--5------7-----7----9------9----7-----7----|
  Gb|--7b9----9b11-(11)--11b13-(13)--9b11-(11)--|
  Db|------------------------------------------|
  Ab|------------------------------------------|
  Eb|------------------------------------------|

  eb|-------------------------------------------|--------0----------|
  Bb|--9~~~~~~~~~~~-12-9-12-9-------------------|------------5------|     The second part is
  Gb|--11b13~~~~~~~-----------11---9h11p9----9--|------6-------6----|  <- another guitar which
  Db|-------------------------------------11----|--6s7-----------7--|     repeats in the
  Ab|-------------------------------------------|-------------------|     background for a while
  Eb|-------------------------------------------|-------------------|

  eb|----------------------------------------------|-----------------0----00--|
  Bb|----------------------------------------------|-----------------5----55--|
  Gb|--11b13r11p9----9---11-11b13r11p9-----9-------|-----------------4----44--|
  Db|-------------11--------------------11----11\--|------2---2h4s6--6----66--|
  Ab|----------------------------------------------|--2h4---4-----------------|
  Eb|----------------------------------------------|--------------------------|

  eb|------------------------------------|-------------------------|
  Bb|--7---9-9-----9b10r9p7-7---7---9----|---------------------12--|    The second part is
  Gb|---------------------------------6--|--------------9h11s13----| <- something like that,
  Db|------------------------------------|----------9h11-----------|    but ridiculously fast
  Ab|------------------------------------|------9h11---------------|
  Eb|------------------------------------|--9h12-------------------|

  eb|-----------------------------|-------12-----12-----12---------------------------------|
  Bb|--12----10-10----9-9----7-7--|--12-----12-----12-----12-----15p12--12----------9------|
  Gb|-----------------------------|--14b16--14b16--14b16--14b16-------14--14p12--12-11b13--|
  Db|-----------------------------|--------------------------------------------14----------|
  Ab|-----------------------------|--------------------------------------------------------|
  Eb|-----------------------------|--------------------------------------------------------|

Verse 3:
  eb|----------------------------------------------------0~~~~~~~~~~~~~--|
  Bb|----------------------------------------------------0~~~~~~~~~~~~~--|
  Gb|--999999999999999999999999999999999999999999999999--2~~~~~~~~~~~~~--|
  Db|--999999999999999999999999999999999999999999999999--2~~~~~~~~~~~~~--|
  Ab|--xxxxxxxxxxxxxxxx9999999999999999xxxxxxxxxxxxxxxx--0~~~~~~~~~~~~~--|
  Eb|--9999999999999999----------------9999999999999999------------------|
       ________________________________________________                     PM

Chorus 3:
  eb|--0~~~~~~~~~~~~~~-0~~~~~~~~~~~~~~-0~~~~~~~~~~~~~~-0----------------|
  Bb|--0~~~~~~~~~~~~~~-0~~~~~~~~~~~~~~-0~~~~~~~~~~~~~~-0----------------|
  Gb|--1~~~~~~~~~~~~~~-x~~~~~~~~~~~~~~-x---------------x----------------|
  Db|--2~~~~~~~~~~~~~~-7~~~~~~~~~~7~~~-4~~~~~~~~~~~~~~-7--99--1111--99--|
  Ab|--2~~~~~~~~~~~~~~-7~~~~~~~~~~7~~~-4~~~~~~~~~~~~~~-7--99--1111--99--|
  Eb|--0~~~~~~~~~~~~~~-5~~~~~~5~~~4~~~-2~~~~~~~~~~~~~~-5--77--9-9---77--|

  eb|--0~~~~~~~~~~~~~~-0~~~~~~~~~~~~~~-0~~~~~~~~~~~~~~-0----------------|
  Bb|--0~~~~~~~~~~~~~~-0~~~~~~~~~~~~~~-0~~~~~~~~~~~~~~-0----------------|
  Gb|--1~~~~~~~~~~~~~~-x~~~~~~~~~~~~~~-x---------------x----------------|
  Db|--2~~~~~~~~~~~~~~-7~~~~~~~~~~7~~~-4~~~~~~~~~~~~~~-7--99--1111--99--|
  Ab|--2~~~~~~~~~~~~~~-7~~~~~~~~~~7~~~-4~~~~~~~~~~~~~~-7--99--1111--99--|
  Eb|--0~~~~~~~~~~~~~~-5~~~~~~5~~~4~~~-2~~~~~~~~~~~~~~-5--77--9-9---77--|

Outro:
  eb|--0--------------|--0----------------------------------0~~~~~~~~~--|
  Bb|--0--------------|--0----------------------------------0~~~~~~~~~--|
  Gb|--x--------------|--x----------------------------------x-----------|
  Db|--7--99--444444--|--7--99--------------------99999999--7~~~~~~~~~--|
  Ab|--7--99--444444--|--7--99--1111111111111111--99999999--7~~~~~~~~~--|
  Eb|--5--77--222222--|--5--77--9-9-9-9-9-9-9-9---77777777--5~~~~~~~~~--|
Tap to rate this tab
 
# A B C D E F G H I J K L M N O P Q R S T U V W X Y Z