Cartel - The Perfect Mistake tab

Intro
e [-----------------------------]
B [-----------------------------]
G [------------6---8---10-------]
D [--xxx---00--x---x---x--------]
A [--xxx---00--4---6---8--------]
D [--xxx---00-------------------]


e [-----------------------------]
B [-----------------------------]
G [------------6---8---10-------]
D [--------00--x---x---x--------]
A [--------00--4---6---8--------]
D [--------00-------------------] x2

e [-----------------------------]
B [-----------------------------]
G [------------6---8---6--------]
D [--------00--x---x---x--------]
A [--------00--4---6---4--------]
D [--------00-------------------]


Verse

e [---------------------------------------------------]
B [---------------------------------------------------]
G [----6------4-------------6-------6---8---10----10--]
D [----6------2------4------6-------x---x---x-----x---]
A [----4-x16--2-x16--4------4-x16---4---6---8-----8---]
D [------------------4-x16----------------------------]

e [--------------------------------------]
B [--------------------------------------]
G [----6------4-------------6------------]
D [----6------4------4------6------------]
A [----4-x16--2-x16--4------4-x16--------]
D [------------------4-x16---------------]


Pre Chorus

e [---------------------------]
B [---------------------------]
G [---------------------------]
D [---1--------------4--------]
A [---1--------------4--------]
D [---1--------------4--------]
Tap to rate this tab
 
# A B C D E F G H I J K L M N O P Q R S T U V W X Y Z