Cartel - Best tab

-----------------------------------------------------------------------------
			     The Best - Cartel
-----------------------------------------------------------------------------
Tabbed by: MousseMoose
Email: moussemooserocks@gmail.com (If I don't respond, try PMing me on this site.)

Guitars:
Gtr. 1: Standard (EADGBe), Slightly Distored
Gtr. 2: Standard (EADGBe), Clean
Gtr. 3: Standard (EADGBe), Slightly More Distorted
INTRO

Gtr. 1
e|------8-----------8----------8----------8----------8----------8-----------|
B|----9---9-------9---9------9---9------9---9------9---9------9---9---------|
G|-10-------10--9-------9--8-------8--7-------7--6-------6--6-------6-------|
D|--------------------------------------------------------------------------|
A|--------------------------------------------------------------------------|
E|--------------------------------------------------------------------------|



Gtr. 1
e|-----8----------8---------------------------------------------------------|
B|---9---9------------9-----------------------------------------------------|
G|-6-------6----9---8-------------------------------------------------------|
D|--------------------------------------------------------------------------|
A|--------------------------------------------------------------------------|
E|--------------------------------------------------------------------------|



Gtr. 1
e|------8-----------8----------8----------8----------8-----------8----------|
B|----9---9-------9---9------9---9------9---9------9---9-------9---9--------|
G|-10-------10--9-------9--8-------8--7-------7--6-------6------------------|
D|----------------------------------------------------------10-------10-----|
A|--------------------------------------------------------------------------|
E|--------------------------------------------------------------------------|



Gtr. 1
e|-----8----------8------------8-----------8-----------8--------------------|
B|---9---9------9------------9---9-------9---9-------9---9------------------|
G|-------------------------6-------6----------------------------------------|
D|-8-------8--8-----8--10-------------10-------10--8-------8---8--/10-8-6---|
A|--------------------------------------------------------------------------|
E|--------------------------------------------------------------------------|


FLUTE COMES IN HERE


Gtr. 1
e|-------8-----------8----------8----------8----------8----------8----------|
B|-----9---9-------9---9------9---9------9---9------9---9------9---9--------|
G|-/10-------10--9-------9--8-------8--7-------7--6-------6--6-------6------|
D|--------------------------------------------------------------------------|
A|--------------------------------------------------------------------------|
E|--------------------------------------------------------------------------|



Gtr. 1
e|-----8----------8---------------------------------------------------------|
B|---9---9------------9-----------------------------------------------------|
G|-6-------6----9---8-------------------------------------------------------|
D|--------------------------------------------------------------------------|
A|--------------------------------------------------------------------------|
E|--------------------------------------------------------------------------|


GUITAR 2 COMES IN HERE


Gtr. 1
e|------8-----------8----------8----------8----------8-----------8----------|
B|----9---9-------9---9------9---9------9---9------9---9-------9---9--------|
G|-10-------10--9-------9--8-------8--7-------7--6-------6------------------|
D|----------------------------------------------------------10-------10-----|
A|--------------------------------------------------------------------------|
E|--------------------------------------------------------------------------|
Gtr. 2
e|--------------------------------------------------------------------------|
B|--------------------------------------------------------------------------|
G|-----5----------5----------5----------5----------5----------5-------------|
D|---6---6------6---6------6---6------6---6------6---6------6---6-----------|
A|-8-------8--7-------7--6-------6--5-------5--4-------4--3-------3---------|
E|--------------------------------------------------------------------------|



Gtr. 1
e|-----8----------8------------8-----------8-----------8----------8---------|
B|---9---9------9------------9---9-------9---9-------9---9------9-----------|
G|-------------------------6-------6----------------------------------------|
D|-8-------8--8-----8--10-------------10-------10--8-------8--8-----8--10---|
A|--------------------------------------------------------------------------|
E|--------------------------------------------------------------------------|
Gtr. 2
e|--------------------------------------------------------------------------|
B|--------------------------------------------------------------------------|
G|-----5----------5-----------5----------5----------5----------5------------|
D|---6---6------6-----------6---6------6---6------6---6------6--------------|
A|---------------------3--4-------4--3-------3----------------------3-------|
E|-6-------6--6-----6---------------------------6-------6--6-----6----------|



Gtr. 1
e|-----8-----------8-----------8--------------------------------------------|
B|---9---9-------9---9-------9---9------------------------------------------|
G|-6-------6----------------------------------------------------------------|
D|------------10-------10--8-------8--8--/10-8-6----------------------------|
A|--------------------------------------------------------------------------|
E|--------------------------------------------------------------------------|
Gtr. 2
e|--------------------------------------------------------------------------|
B|--------------------------------------------------------------------------|
G|-----5----------5----------3----------------------------------------------|
D|---6---6------6---6------6---6--------------------------------------------|
A|-4-------4--3-------3-----------------------------------------------------|
E|-----------------------6-------6--6--/8-6-4-------------------------------|


BASS AND DRUMS COME IN HERE


Gtr. 3
e|------8-----------8----------8----------8----------8-----------8----------|
B|----9---9-------9---9------9---9------9---9------9---9-------9---9--------|
G|-10-------10--9-------9--8-------8--7-------7--6-------6------------------|
D|----------------------------------------------------------10-------10-----|
A|--------------------------------------------------------------------------|
E|--------------------------------------------------------------------------|
Gtr. 2
e|--------------------------------------------------------------------------|
B|--------------------------------------------------------------------------|
G|-----5----------5----------5----------5----------5----------5-------------|
D|---6---6------6---6------6---6------6---6------6---6------6---6-----------|
A|-8-------8--7-------7--6-------6--5-------5--4-------4--3-------3---------|
E|--------------------------------------------------------------------------|



Gtr. 3
e|-----8----------8------------8-----------8-----------8----------8---------|
B|---9---9------9------------9---9-------9---9-------9---9------9-----------|
G|-------------------------6-------6----------------------------------------|
D|-8-------8--8-----8--10-------------10-------10--8-------8--8-----8--10---|
A|--------------------------------------------------------------------------|
E|--------------------------------------------------------------------------|
Gtr. 2
e|--------------------------------------------------------------------------|
B|--------------------------------------------------------------------------|
G|-----5----------5-----------5----------5----------5----------5------------|
D|---6---6------6-----------6---6------6---6------6---6------6--------------|
A|---------------------3--4-------4--3-------3----------------------3-------|
E|-6-------6--6-----6---------------------------6-------6--6-----6----------|



Gtr. 3
e|-----8-----------8-----------8--------------------------------------------|
B|---9---9-------9---9-------9---9------------------------------------------|
G|-6-------6----------------------------------------------------------------|
D|------------10-------10--8-------8--8--/10-8------------------------------|
A|--------------------------------------------------------------------------|
E|--------------------------------------------------------------------------|
Gtr. 2
e|--------------------------------------------------------------------------|
B|--------------------------------------------------------------------------|
G|-----5----------5----------5----------------------------------------------|
D|---6---6------6---6------6---6--------------------------------------------|
A|-4-------4--3-------3-----------------------------------------------------|
E|-----------------------6-------6--6--/8-6-4-------------------------------|


OUTRO


Gtr. 3
e|--------------------------------------------------------------------------|
B|--------------------------------------------------------------------------|
G|-6----------------5----------------3--------------------------------------|
D|-6----------------5----------------3---------------6----------------------|
A|-4----------------3----------------1---------------6----------------------|
E|---------------------------------------------------4----------------------|
Gtr. 2
e|--------------------------------------------------------------------------|
B|--------------------------------------------------------------------------|
G|--------------------------------------------------------------------------|
D|--------------------------------------------------------------------------|
A|--------------------------------------------------------------------------|
E|-----------------------------------------6--/8-6-4------------------------|

                                    END

| /  slide up
| \  slide down
| h  hammer-on
| p  pull-off
| ~  vibrato
| +  harmonic
| x  Mute note
=============================================================================
Tap to rate this tab
 
# A B C D E F G H I J K L M N O P Q R S T U V W X Y Z