Song name
# A B C D E F G H I J K L M N O P Q R S T U V W X Y Z

Cartel - Typical tab

This is my first tab on here but I was looking for one for this song and the one tab 
wasn't so good so I learned it myself thought you guys might enjoy


Intro/Verse
e|-------------------------------------------------------------------------|
B|-------------------------------------------------------------------------|
G|----9-9---9-9---------------------------------9-9---9-9------------------|
D|----9-9---9-9--x8-----9-9---9-9---7-7---7-7---9-9---9-9-x6---------------|
A|----7-7---7-7---------9-9---9-9---7-7---7-7---7-7---7-7------------------|
E|----------------------7-7---7-7---5-5---5-5------------------------------|

e|-------------------------------------------------------------------------|
B|-------------------------------------------------------------------------|
G|---------------------------9-9---9-9-------------------------------------|
D|---9-9---9-9---7-7---7-7---9-9---9-9-x2----------------------------------|
A|---9-9---9-9---7-7---7-7---7-7---7-7-------------------------------------|
E|---7-7---7-7---5-5---5-5-------------------------------------------------|


Pre Chorus
e|-------------------------------------------------------------------------|
B|-------------------------------------------------------------------------|
G|-------------------------------------------------9-9---9-9---------------|
D|-7-7---7-7---2-2---2-2---4-4---4-4---7-7---7-7---9-9---9-9---7-7---7-7---|
A|-7-7---7-7---2-2---2-2---4-4---4-4---7-7---7-7---7-7---7-7---7-7---7-7---|
E|-5-5---5-5---0-0---0-0---2-2---2-2---5-5---5-5---------------5-5---5-5---|

e|---------------------------------------------------------------------------|
B|---------------------------------------------------------------------------|
G|---------------------------------------------------------------------------|
D|---4--4-4-4-4-4-4-4-4------------------------------------------------------|
A|---4--4-4-4-4-4-4-4-4------------------------------------------------------|
E|---2--2-2-2-2-2-2-2-2-\----------------------------------------------------|
        p.m------------------------------------------------------------------|


Chorus
e|-------------------------------------------------------------------------|
B|-------------------------------------------------------------------------|
G|-9-9-9-9-9-9-9-9---------------------------------7-7-7-------------------|
D|-9-9-9-9-9-9-9-9-9-9-9-9-9-9-9-9-4-4-4-4-4-4-4-4-7-7-7-7-7-7-------------|
A|-7-7-7-7-7-7-7-7-9-9-9-9-9-9-9-9-4-4-4-4-4-4-4-4-5-5-5-7-7-7--x2---------|
E|-----------------7-7-7-7-7-7-7-7-2-2-2-2-2-2-2-2-------5-5-5-------------|

Verse
e|:--------------------------------------------------------------------:|
B|:--------------------------------------------------------------------:|
G|:-9-9---9-9----------------------------------------------------------:|
D|:-9-9---9-9-x6---9-9---9-9---7-7---7-7-------------------------------:|x2
A|:-7-7---7-7------9-9---9-9---7-7---7-7-------------------------------:|
E|:----------------7-7---7-7---5-5---5-5-------------------------------:|

e|-------------------------------------------------------------------------|
B|-------------------------------------------------------------------------|
G|-------------------------9-9---9-9---------------------------------------|
D|-9-9---9-9---7-7---7-7---9-9---9-9-x2------------------------------------|
A|-9-9---9-9---7-7---7-7---7-7---7-7---------------------------------------|
E|-7-7---7-7---5-5---5-5---------------------------------------------------|


Pre Chorus
e|-------------------------------------------------------------------------|
B|-------------------------------------------------------------------------|
G|-------------------------------------------------9-9---9-9---------------|
D|-7-7---7-7---2-2---2-2---4-4---4-4---7-7---7-7---9-9---9-9---7-7---7-7---|
A|-7-7---7-7---2-2---2-2---4-4---4-4---7-7---7-7---7-7---7-7---7-7---7-7---|
E|-5-5---5-5---0-0---0-0---2-2---2-2---5-5---5-5---------------5-5---5-5---|

e|---------------------------------------------------------------------------|
B|---------------------------------------------------------------------------|
G|---------------------------------------------------------------------------|
D|---4--4-4-4-4-4-4-4-4------------------------------------------------------|
A|---4--4-4-4-4-4-4-4-4------------------------------------------------------|
E|---2--2-2-2-2-2-2-2-2-\----------------------------------------------------|
        p.m------------------------------------------------------------------|


Chorus
e|-------------------------------------------------------------------------|
B|-------------------------------------------------------------------------|
G|-9-9-9-9-9-9-9-9---------------------------------7-7-7-------------------|
D|-9-9-9-9-9-9-9-9-9-9-9-9-9-9-9-9-4-4-4-4-4-4-4-4-7-7-7-7-7-7-------------|
A|-7-7-7-7-7-7-7-7-9-9-9-9-9-9-9-9-4-4-4-4-4-4-4-4-5-5-5-7-7-7--x4---------|
E|-----------------7-7-7-7-7-7-7-7-2-2-2-2-2-2-2-2-------5-5-5-------------|

Bridge
e|-------------------------------------------------------------------------|
B|-------------------------------------------------------------------------|
G|-9-9-9-9-9-9-9-9---------------------------------------------------------|
D|-9-9-9-9-9-9-9-9-9-9-9-9-9-9-9-9-6-6-6-6-6-6-6-6-4-4-4-4-6-6-6-6---------|
A|-7-7-7-7-7-7-7-7-9-9-9-9-9-9-9-9-6-6-6-6-6-6-6-6-4-4-4-4-6-6-6-6---------|
E|-----------------7-7-7-7-7-7-7-7-4-4-4-4-4-4-4-4-2-2-2-2-4-4-4-4---------|

e|-------------------------------------------------------------------------|
B|-------------------------------------------------------------------------|
G|-------------------------------------------------6-6-6-------------------|
D|-7-7-7-7-7-7-7-7-6-6-6-6-6-6-6-6-9-9-9-9-9-9-9-9-6-6-6-6-6---------------|
A|-7-7-7-7-7-7-7-7-6-6-6-6-6-6-6-6-9-9-9-9-9-9-9-9-4-4-4-6-6---------------|
E|-5-5-5-5-5-5-5-5-4-4-4-4-4-4-4-4-7-7-7-7-7-7-7-7-------4-4---------------|

e|-------------------------------------------------------------------------|
B|-------------------------------------------------------------------------|
G|-9-9-9-9-9-9-9-9---------------------------------------------------------|
D|-9-9-9-9-9-9-9-9-9-9-9-9-9-9-9-9-6-6-6-6-6-6-6-6-4-4-4-4-4-4-4-4---------|
A|-7-7-7-7-7-7-7-7-9-9-9-9-9-9-9-9-6-6-6-6-6-6-6-6-4-4-4-4-4-4-4-4---------|
E|-----------------7-7-7-7-7-7-7-7-4-4-4-4-4-4-4-4-2-2-2-2-2-2-2-2---------|

e|-------------------------------------------------------------------------|
B|-------------------------------------------------------------------------|
G|-------------------------------------------------------------------------|
D|-7-7-7-7-7-7-7-7-6-6-6-6-6-6-6-6-4-4-4-4-4-4-4-4-4-4-4-4-4-4-4-4---------|
A|-7-7-7-7-7-7-7-7-6-6-6-6-6-6-6-6-4-4-4-4-4-4-4-4-4-4-4-4-4-4-4-4---------|
E|-5-5-5-5-5-5-5-5-4-4-4-4-4-4-4-4-2-2-4-2-2-2-2-2-2-2-2-2-2-2-2-2---------|

e|-------------------------------------------------------------------------|
B|-------------------------------------------------------------------------|
G|-9-9---9-9------9~------------------7-7-7--------------------------------|
D|-9-9---9-9-x4---9~----9~-----4~-----7-7-7-7-7-7--------------------------|
A|-7-7---7-7------7~----9~-----4~-----5-5-5-7-7-7--------------------------|
E|----------------------7~-----2~-----------5-5-5--------------------------|

Chorus
e|-------------------------------------------------------------------------|
B|-------------------------------------------------------------------------|
G|-9-9-9-9-9-9-9-9---------------------------------7-7-7-------------------|
D|-9-9-9-9-9-9-9-9-9-9-9-9-9-9-9-9-4-4-4-4-4-4-4-4-7-7-7-7-7-7-------------|
A|-7-7-7-7-7-7-7-7-9-9-9-9-9-9-9-9-4-4-4-4-4-4-4-4-5-5-5-7-7-7--x5---------|
E|-----------------7-7-7-7-7-7-7-7-2-2-2-2-2-2-2-2-------5-5-5-------------|


Hope this helps you get started I don't know how right it is as I just threw it together 
in about an hour, but it sounds right to me. Listen to the song for the timing, and 
keep practicing. Let me know if you find any mistakes and I will try and update them.
Tap to rate this tab
# A B C D E F G H I J K L M N O P Q R S T U V W X Y Z