Song name
# A B C D E F G H I J K L M N O P Q R S T U V W X Y Z

Cartel - Typical tab

This tab was done by ear using the iOS app amplitude in which I activated the “No Voice” 
option which quiets the vocals and amplifies one of the guitar parts. If you have any 
fixes please email me @ lignimvite@gmail.com
Thanks and please rate 5 stars!

\   Slide down
PM- Palm mute (notes with – under then are the only ones muted)
x_  Play chord/section x amount of times
~   Sustain

Song:  Typical
Band:  Cartel
Album: Cycles

        Verse 1
E|-------------------------------------------|
B|-------------------------------------------|
G|-9-9--9-9------------------11-11--13-13----|
D|-x-x--x-x-x6---------------x--x---x--x-----| x2
A|-7-7--7-7----11-11--11-11--9--9---11-11----|
E|-------------9--9---9--9-------------------|

E|----------------|
B|----------------|
G|-9-9--9-9-------|
D|-x-x--x-x-x2----|
A|-7-7--7-7-------|
E|----------------|

        Pre-Chorus
E|------------------------------------------------------------------|
B|------------------------------------------------------------------|
G|------------------------------------------------------------------|
D|-11-11--11-11-7-7--7-7--2-2--2-2--2-2--2-2------------------------|
A|-11-11--11-11-7-7--7-7--2-2--2-2--2-2--2-2------------------------|
E|-9--9---9--9--5-5--5-5--0-0--0-0--0-0--0-0------------------------|

E|----------------------------------------------------------|
B|----------------------------------------------------------|
G|----------------------------------------------------------|
D|-11-11--11-11-7-7--7-7--9-9-999999-9----------------------|
A|-11-11--11-11-7-7--7-7--9-9-999999-9----------------------|
E|-9--9---9--9--5-5--5-5--7-7-777777-7----------------------|
                PM------------------------------------------|
        Chorus
E|------------------------------|
B|------------------------------|
G|-9-------6---7-7-7------------|
D|-9x8-7---6x8-7-7-7--7-7-7-----| x2
A|-7---7x8-4---5-5-5--7-7-7-----|
E|-----5--------------5-5-5-----|

        Verse 2
E|---------------------------------------|
B|---------------------------------------|
G|-9-9--9-9------------------------------|
D|-x-x--x-x-x6---------------7-7--9-9----|
A|-7-7--7-7----11-11--11-11--5-5--7-7----|
E|-------------9--9---9--9---------------|

E|-------------------------------------------|
B|-------------------------------------------|
G|-9-9--9-9------------------11-11--13-13----|
D|-x-x--x-x-x6---------------x--x---x--x-----| x2
A|-7-7--7-7----11-11--11-11--9--9---11-11----|
E|-------------9--9---9--9-------------------|

E|----------------|
B|----------------|
G|-9-9--9-9-------|
D|-x-x--x-x-x2----|
A|-7-7--7-7-------|
E|----------------|

        Pre-Chorus
E|------------------------------------------------------------------|
B|------------------------------------------------------------------|
G|------------------------------------------------------------------|
D|-11-11--11-11-7-7--7-7--2-2--2-2--2-2--2-2------------------------|
A|-11-11--11-11-7-7--7-7--2-2--2-2--2-2--2-2------------------------|
E|-9--9---9--9--5-5--5-5--0-0--0-0--0-0--0-0------------------------|

E|----------------------------------------------------------|
B|----------------------------------------------------------|
G|----------------------------------------------------------|
D|-11-11--11-11-7-7--7-7--9-9-999999-9----------------------|
A|-11-11--11-11-7-7--7-7--9-9-999999-9----------------------|
E|-9--9---9--9--5-5--5-5--7-7-777777-7----------------------|
                PM------------------------------------------|
        Chorus 2
E|------------------------------|
B|------------------------------|
G|-9-------6---7-7-7------------|
D|-9x8-7---6x8-7-7-7--7-7-7-----| x4
A|-7---7x8-4---5-5-5--7-7-7-----|
E|-----5--------------5-5-5-----|

        Bridge
E|---------------------------------------------------------------------------|
B|---------------------------------------------------------------------------|
G|-----9----------------9--------------------9----------------9---11----14---|
D|-7---9x8-9----6---7---9x8-9---11---9---7---9x8-11---9---7---9x8-11x12-14x4-|
A|-7x8-7---9x12-6x4-7x8-7---9x8-11x3-9x3-7x8-7---11x8-9x8-7x8-7---9-----12---|
E|-5-------7----4---5-------7---9----7---5-------9----7---5------------------|

E|-----------------0---x-------------------|
B|-----------------0---2-------------------|
G|-9-9--9-9--------x---2---6---7-----------|
D|-x-x--x-x(x3)----2---2---6---7x3-7-------|
A|-7-7--7-7--------2---0---4---5---7x3-----|
E|--------------16\0---x-----------5-------|

        Chorus 3
E|------------------------------|
B|------------------------------|
G|-9-------6---7-7-7------------|
D|-9x8-7---6x8-7-7-7--7-7-7-----| x5
A|-7---7x8-4---5-5-5--7-7-7-----|
E|-----5--------------5-5-5-----|
Tap to rate this tab
 
# A B C D E F G H I J K L M N O P Q R S T U V W X Y Z