Song name
# A B C D E F G H I J K L M N O P Q R S T U V W X Y Z

Cartel - Burn This City tab

-------------------------------------------------------------------------------
			     Burn This City - Cartel
-------------------------------------------------------------------------------
Tabbed by: Brian Huber
Email: bth141@psu.edu

Tuning: 1/2 step down - Eb Ab Db Gb Bb eb

Intro/Verses:
eb|-----------------------------------------------|
Bb|-----------------------------------------------|
Gb|--9--9-9--9-9---------9--9-9--9-9--------------|
Db|--9--9-9--7-6--9-9-9--9--9-9--7-6-x-x-x-9-9-9--|   
Ab|--x--9-9-------9-9-9--x--9-9------x-x-x-9-9-9--|
Eb|--9------------7-7-7--9-----------x-x-x-7-7-7--|

				     *It is important to mute over the
				      fret marker between frets 8 and 9
	    			      for a needed harmonic.

*Both verses, 2nd time through ONLY*:
eb|----------------------------------------|
Bb|----------------------------------------|
Gb|--9--9-9--9-9---------9--9-9--9-9-------|
Db|--9--9-9--7-6--9-9-9--9--9-9--7-7--9-9--|
Ab|--x--9-9-------9-9-9--x--9-9-------9-9--|
Eb|--9------------7-7-7--9------------7-7--|
	    
1st Chorus:
eb|-------------------------------------------------------------------|
Bb|-------------------------------------------------------------------|
Gb|------------------6-6-6-6-6-6-6-6----------------------------------|
Db|--7-7-7-7-7-7-7-7-6-6-6-6-6-6-6-6-4-4-4-4-4-4-4-4-4-4-4-4-4-4-4-4--|
Ab|--7-7-7-7-7-7-7-7-4-4-4-4-4-4-4-4-4-4-4-4-4-4-4-4-4-4-4-4-4-4-4-4--|
Eb|--5-5-5-5-5-5-5-5-----------------2-2-2-2-2-2-2-2-2-2-2-2-2-2-2-2--|

eb|---------------------------------------------------------|
Bb|---------------------------------------------------------|
Gb|------------------6-6-6-6-6-6-6-6------------------------|
Db|--7-7-7-7-7-7-7-7-6-6-6-6-6-6-6-6-4-4-4-4-4-4-4-4--4--4--|
Ab|--7-7-7-7-7-7-7-7-4-4-4-4-4-4-4-4-4-4-4-4-4-4-4-4--4--4--|
Eb|--5-5-5-5-5-5-5-5-----------------2-2-2-2-2-2-2-2--2--2--|

Fill:
eb|-----------------------------|
Bb|-------5---------------------|
Gb|--6------6-4---4h6-----------|
Db|-------------6--------6b7b6--|
Ab|-----------------------------|
Eb|-----------------------------|

2nd Chorus: x4
eb|-------------------------------------------------------------------|
Bb|-------------------------------------------------------------------|
Gb|------------------6-6-6-6-6-6-6-6----------------------------------|
Db|--7-7-7-7-7-7-7-7-6-6-6-6-6-6-6-6-4-4-4-4-4-4-4-4-4-4-4-4-4-4-4-4--|
Ab|--7-7-7-7-7-7-7-7-4-4-4-4-4-4-4-4-4-4-4-4-4-4-4-4-4-4-4-4-4-4-4-4--|
Eb|--5-5-5-5-5-5-5-5-----------------2-2-2-2-2-2-2-2-2-2-2-2-2-2-2-2--|

Bridge (guitar 1): x4
   PM- - - - - - - - - - - - - - - - - - - - - - - - - - - - - - - -|
eb|-------------------------------------------------------------------|
Bb|-------------------------------------------------------------------|
Gb|-------------------------------------------------------------------| *With some sort of doubler
Db|--------------------------------------------------x-x-x-x-x-x-x-x--|  effect to thicken the sound.
Ab|--4-4-4-4-4-4-4-4-4-4-4-4-4-4-4-4-x-x-x-x-x-x-x-x-4-4-4-4-4-4-4-4--|
Eb|--0-0-0-0-0-0-0-0-0-0-0-0-0-0-0-0-4-4-4-4-4-4-4-4------------------|

Bridge (guitar 1) - continued: x4
eb|--0-0-0-0-0-0-0-0-0-0-0-0-0-0-0-0-4-4-4-4-4-4-4-4-4-4-4-4-4-4-4-4--|
Bb|--0-0-0-0-0-0-0-0-0-0-0-0-0-0-0-0-4-4-4-4-4-4-4-4-5-5-5-5-5-5-5-5--|
Gb|--1-1-1-1-1-1-1-1-1-1-1-1-1-1-1-1-4-4-4-4-4-4-4-4-6-6-6-6-6-6-6-6--|	*You can also use the power
Db|--2-2-2-2-2-2-2-2-2-2-2-2-2-2-2-2-6-6-6-6-6-6-6-6-6-6-6-6-6-6-6-6--|	 chord versions if you like.
Ab|--2-2-2-2-2-2-2-2-2-2-2-2-2-2-2-2-6-6-6-6-6-6-6-6-4-4-4-4-4-4-4-4--|
Eb|--0-0-0-0-0-0-0-0-0-0-0-0-0-0-0-0-4-4-4-4-4-4-4-4------------------|

Bridge (guitar 2): x8
eb|--16----12----16----12----16----12----16-------12-14----11----14----11-----|
Bb|-----14----14----14----14----14----14----12-14-------12----12----12----12--|
Gb|---------------------------------------------------------------------------|
Db|---------------------------------------------------------------------------|
Ab|---------------------------------------------------------------------------|
Eb|---------------------------------------------------------------------------|

Bridge (guitar 2) - continued:
eb|--12-------12----------12--|
Bb|-----14-------14-12-14-----|
Gb|--------13-----------------|
Db|---------------------------|
Ab|---------------------------|
Eb|---------------------------|

Outro (guitar 2): 
eb|--17p0-17p0-17p0-17p0-19p0-19p0-19p0-19p0-17p0-17p0-17p0-17p0-19p0-19p0-19-21-19p0--|
Bb|------------------------------------------------------------------------------------|
Gb|------------------------------------------------------------------------------------| *Repeat, end on 17.
Db|------------------------------------------------------------------------------------|
Ab|------------------------------------------------------------------------------------|
Eb|------------------------------------------------------------------------------------|

| b  bend
| h  hammer-on
| p  pull-off
| x  Mute note
===============================================================================
Tap to rate this tab
# A B C D E F G H I J K L M N O P Q R S T U V W X Y Z