Song name
# A B C D E F G H I J K L M N O P Q R S T U V W X Y Z

Cartel - Luckie St tab

This is my first tab. I figured out most of this by ear, there is one part i'm not 
sure about.

eb-----------------------------------------------------------------------------|
Bb------15-----15-----15-----15-----15~------15-----15-----15-----15-----15~---|
Gb-11h12--11h12--11h12--11h12--11h12----11h12--11h12--11h12--11h12--11h12------|
Db-----------------------------------------------------------------------------|
Ab-----------------------------------------------------------------------------|
Db-----------------------------------------------------------------------------|

eb-17p15--17p15--17p15--17p15--17p15--17p15--17p15--17p15----------------------|
Bb------15-----15-----15-----15-----15-----15-----15-----15--------------------|
Gb-----------------------------------------------------------------------------|
Db-----------------------------------------------------------------------------|
Ab-----------------------------------------------------------------------------|
Db-----------------------------------------------------------------------------|

i'm not real sure about the fill here, but this is my best guess

eb---------------------------------------------------------------------------|
Bb---------14-17b-18p15------------------------------------------------------|
Gb-14h15-14------------------------------------------------------------------|
Db---------------------------------------------------------------------------|
Ab---------------------------------------------------------------------------|
Db---------------------------------------------------------------------------|

Now just play the the top 2 sections again and your done. I believe this is 90% correct, 
feel free to prove me wrong.


key: h= hammer-on
     p= pull-off
     b= bend
Tap to rate this tab
 
# A B C D E F G H I J K L M N O P Q R S T U V W X Y Z