Song name
# A B C D E F G H I J K L M N O P Q R S T U V W X Y Z

Cartel - Minstrels Prayer tab

Help us improve GuitareTab! Take a short survey!
-------------------------------------------------------------------------------
			     Minstrels Prayer - Cartel
-------------------------------------------------------------------------------
Tabbed by:  TheBagz
Email: Automag0116@hotmail.com

Tuning: Standard with Capo on 1st Fret

Intro:
e|------------------------|
B|--1-----1------1-----1--|
G|----0---0--------0---0--|
D|3-----0-2----3-----0-2--|
A|--------3------------0--|
E|------------------------|

Chorus Chords:
e|------------|
B|1--1--1--1--|
G|0--0--0--0--|
D|3--2--3--2--|
A|---3-----0--|
E|------------|

and I'll hold on to the dream. . . Chords:
e|1--0--1--|
B|1--1--3--|
G|2--0--2--|
D|3--2-----|
A|---3-----|
E|---------|

After and I'll hold on to the dream. . . :
e|-------------------------------------------|
B|--1-----1------1-----1----1-----3-------5--|
G|----0---0--------0---0------0-----0-5------|
D|3-----0-2----3-----0-2--3-----5-------7----|
A|--------3------------0---------------------|
E|-------------------------------------------|

Related for Minstrels Prayer tab