Song name
# A B C D E F G H I J K L M N O P Q R S T U V W X Y Z

Cartel - Fortunate tab

-----------------------------------------------------------------
The Fortunate - Cartel
-----------------------------------------------------------------
Tabbed by: Bair
Email: bair_morritt@hotmail.com

Tuning: Standard

Intro:
"Hey Hey don't pay no mind,
We are the second, you're minutes behind
So you say, Yea I'm alright
You are the fortunate all the time
Yea, you are the fortunate"

Verse:
e|------------------------------------------|
B|--66--99----------------------------------|
G|--55--88--66-----6------------------------|
D|--33--66--66--6--6--66--(X8)--------------|
A|----------44--6--4--66--------------------|
E|--------------4-----44--------------------|
"I've been looking for a way out...."

Pre-Chorus:
e|-------------------------|
B|-------------------------|
G|--8----------------------|
D|--8--4-(Let Ring)--------|
A|--6--4-------------------|
E|-----2-------------------|
"So if it's ok by you."

Chorus:
e|------------------------------------------|
B|------------------------------------------|
G|--66--------------66-----------66---------|
D|--66--444--66--8--66--444--66--66--(X2)---|
A|--44--444--66--8--44--444--66--44---------|
E|------222--44--6------222--44-------------|
"Hey Hey don't pay no mind...."

-Then Verse
-Then Pre-Chorus
-Then Chorus

Interlude:
e|-------------------------------------------------|
B|-------------------------------------------------|
G|--------------66666666-------88888888------------|
D|--4444--6666--66666666-(X3)--88888888--66666666--|  X2
A|--4444--6666--44444444-------66666666--66666666--|
E|--2222--4444---------------------------44444444--|
"And if it's the one thing that I've been sure of"

(single note) Chorus:
e|------------------------------------------------|
B|------------------------------------------------|
G|------------------------------------------------|
D|------------------------------------------------|
A|--6666----------------6666-----------6666-(X2)--|
E|-------4444-6666-8888------4444-6666------------|

-Then Chorus (X2)

Outro:
e|------------------------|
B|------------------------|
G|----------666-----------|
D|--444--6--666-----------|
A|--444--6--444-----------|
E|--222--4----------------|

----------------------------------------------------------------------------
Lyrics:

Verse1:
I've been looking for a way out
Something that isnt so cruel
Well i ish a little tired, you see
Complacent and miserable
I think you're missing out
I think you're dumbing it down
You're past the point of holding up to your words,
There's no getting it by us now
So if it's OK by you,

Verse2:
So full of this adventure
The feelings insecure
It's so easy, push the pin, xxxx the tense
And give us nothing more
And if it's OK by you,

Interlude:
And if it's the one thing
That I've been sure of,
Well its OK, I know you've got the time
If it's all one in the same thing
Then I'e been waiting for the fallout with history
But it's got on for so long, for so long
That I don't think you'll ever be the same
Tap to rate this tab
# A B C D E F G H I J K L M N O P Q R S T U V W X Y Z