Song name
# A B C D E F G H I J K L M N O P Q R S T U V W X Y Z

Cartel - Q tab

----------------------------------------------------------------------------
			     Q - Cartel
----------------------------------------------------------------------------
Tabbed by:Caleb4776

yeah, idk if this is right, this is my first tab so yeah, but, it sounded right to me, 
and i only really know the power chords, idk all the fancy solo stuff, but, tell me what 
think

Tuning:EADGBe

Intro

e|-----------------------------------------------------------------------|
B|-----------------------------------------------------------------------|
G|-----------------------------------------------------------------------|
D|--121212\555555555555--------------------------------------------------|
A|--121212\555555555555-(x4)---------------------------------------------|
E|--101010\333333333333--------------------------------------------------|
PM__*******************

Verse1

e|-----------------------------------------------------------------------|
B|-----------------------------------------------------------------------|
G|---------3---------------------888888888---------3---------------8~----|
D|-10-10\8-3-55/6666-----10-10\8-888888888-10-10\8-3-55/6666--6/88-8~----|
A|-10-10\8-1-55/6666-----10-10\8-666666666-10-10\8-1-55/6666--6/88-6~----|
E|--8-8-\6---33/4444------8-8-\6------------8-8-\8---33/4444--4/66-------|

Chorus

e|-----------------------------------------------------------------------|
B|-----------------------------------------------------------------------|
G|-----------------------------------------------------------------------|
D|--121212\5~----------121212\555555555555-------------------------------|
A|--121212\5~---(x4)---121212\555555555555--(x2)-------------------------|
E|--101010\3~----------101010\333333333333-------------------------------|
                     PM*******************
at the same time guitar 2 is playing this

e|----77-00-77-00--------------------------------------------------------|
B|---------------------(x8 i think)--------------------------------------|
G|-----------------------------------------------------------------------|
D|-----------------------------------------------------------------------|
A|-----------------------------------------------------------------------|
E|-----------------------------------------------------------------------|


PRE-Verse

e|-----------------------------------------------------------------------|
B|-----------------------------------------------------------------------|
G|-----------------------------------------------------------------------|
D|--121212\555555555555--------------------------------------------------|
A|--121212\555555555555--(x4)--------------------------------------------|
E|--101010\333333333333--------------------------------------------------|
PM__*******************

Verse2(same as 1)

e|-----------------------------------------------------------------------|
B|-----------------------------------------------------------------------|
G|---------3--------------------888888888---------3--------------8~------|
D|-10-10\8-3-55/666-----10-10\8-888888888-10-10\8-3-55/666--6/88-8~------|
A|-10-10\8-1-55/666-----10-10\8-666666666-10-10\8-1-55/666--6/88-6~------|
E|--8-8-\6---33/444------8-8-\6------------8-8-\8---33/444--4/66---------|


Chorus2 (repeat twice)

e|-----------------------------------------------------------------------|
B|-----------------------------------------------------------------------|
G|-----------------------------------------------------------------------|
D|--121212\5~------------------------------------------------------------|
A|--121212\5~---(x4)-----------------------------------------------------|
E|--101010\3~------------------------------------------------------------|

guitar2

e|----77-00-77-00--------------------------------------------------------|
B|---------------------(x8)----------------------------------------------|
G|-----------------------------------------------------------------------|
D|-----------------------------------------------------------------------|
A|-----------------------------------------------------------------------|
E|-----------------------------------------------------------------------|


play this again

e|-----------------------------------------------------------------------|
B|-----------------------------------------------------------------------|
G|-----------------------------------------------------------------------|
D|--121212\555555555555--------------------------------------------------|
A|--121212\555555555555--(x4)--------------------------------------------|
E|--101010\333333333333--------------------------------------------------|
PM__*******************


Repeat Chorus2 twice


Outro

e|----77-00-77-00--------------------------------------------------------|
B|----------------------(x8)---------------------------------------------|
G|-----------------------------------------------------------------------|
D|-----------------------------------------------------------------------|
A|-----------------------------------------------------------------------|
E|-----------------------------------------------------------------------|

| /  slide up
| \  slide down
| h  hammer-on
| p  pull-off
| ~  vibrato
| +  harmonic
| *  Mute note
==========================================================================
Tap to rate this tab
# A B C D E F G H I J K L M N O P Q R S T U V W X Y Z