Guitaretab - guitar tabs
Song name
# A B C D E F G H I J K L M N O P Q R S T U V W X Y Z

Carter Burwell - Phascination Phase tab

--------------------------------------------------------------------------
	Phascination Phase - Carter Burwell
--------------------------------------------------------------------------

Tabbed By - Colton Hilgen
Email - skaterboy3356@yahoo.com

This is a vey basic song (The timeing might get to you) I only got the intro right now 
more to come soon. Email me if you want to talk about anything like.. How GREAT 	Twilight 
I don't care whatever. I hope im not the only guy on the planet who likes twilight. lol


Guitar 1
[ Tab from: http://www.guitaretab.com/c/carter-burwell/174760.html ]
e|--------------------------------------------------------------------|
B|----------------------------------------------------0--3--0---------|
G|-----------------------1--1--2--2--2--2--1--1--1--1---------1-------|
D|--------------------------------------------------------------------|
A|--0--0--0--0--2--2--2---2--0--0--0--0--2--2--2--2-------------------|
E|--------------------------------------------------------------------|

Guitar 2
e|--------------------------------------------------------------------|
B|------------------------------------5--5----------------------------|
G|--------------------------------------------------------------------|
D|--------------------------------------------------------------------|
A|--------------------------------------------------------------------|
E|--------------------------------------------------------------------|
Related for Phascination Phase tab
Advertisement will be closed in 10 seconds