Song name
# A B C D E F G H I J K L M N O P Q R S T U V W X Y Z

Carter Burwell - Bellas Lullaby tab

Help us improve GuitareTab! Take a short survey!
I LOVE Twilight, so I had to put these tabs on here. If you have any corrections or 
for this tab emaill me:

girls_rock018@yahoo.com

                 -Sonia aka TwilightGurl

--6--5--3--0----3------------------6--5--3--0----3------------1--3----0-3-5-|
--------------3---0---0---1--------------------3---0----0--1--------4-------|
--------------------2--------0---2-------------------2----------------------|
----------------------------------------------------------------------------|
----------------------------------------------------------------------------|
----------------------------------------------------------------------------|


3-5-7-14-7-3-1-0-14-7-1-3-7-14-12-10-8-7-5-3-1-----6-5-3-0---3--------------|
-----------------------------------------------3-0---------3---0------------|
-----------------------------------------------------------------2----------|
----------------------------------------------------------------------------|
----------------------------------------------------------------------------|
----------------------------------------------------------------------------|


-------1-1-5-7--------------------------------------------------0-0---------|
----1-1-------3-3-1-1-0-0--------0-0-3-3-3-1-1-0-0-----------0-0------------|
-------------------------2----0-0------------------2-----0-0----------------|
3-3-----------------------3-3------------------------3-3--------------------|
----------------------------------------------------------------------------|
----------------------------------------------------------------------------|


1-----------------------0-0-5-5-7-----------------------0-0-5-5-------------|
--3-3-1-1-0-0-------1-1-----------3-3-1-1-0-0-------1-1---------------------|
--------------2-0-0---------------------------2-0-0-------------------------|
----------------------------------------------------------------------------|
----------------------------------------------------------------------------|
----------------------------------------------------------------------------|


-5-5-3-0-0-------0-0-3-3-7-7-10-10-5-5-3-0-0-------3-5-7--------------------|
-----------3-0-------------------------------3-0----------------------------|
---------------2---------------------------------2--------------------------|
----------------------------------------------------------------------------|
----------------------------------------------------------------------------|
----------------------------------------------------------------------------|


-----------------------------1-----------------------0-0-5-5-7--------------|
-3-3-1-1-0-0-----------0-0-3---3-3-1-1-0-0-------1-1------------------------|
-------------2-----0-0---------------------2-0-0----------------------------|
---------------2-2----------------------------------------------------------|
----------------------------------------------------------------------------|
----------------------------------------------------------------------------|


-----------------------0-0-5-5-7--------------------------------------------|
-3-3-1-1-0-0-------1-1------------------------------------------------------|
-------------2-0-0----------------------------------------------------------|
----------------------------------------------------------------------------|
----------------------------------------------------------------------------|
----------------------------------------------------------------------------|
Related for Bellas Lullaby tab