Song name
# A B C D E F G H I J K L M N O P Q R S T U V W X Y Z

Carter Burwell - The Lion Fell In Love With The Lamb tab

---------------------------------------
The Lion Fell In Love With The Lamb - Carter Burwell
-------------------------------------------
---------------------------
Tabbed By - Colton Hilgen
---------------------------------
--------------------------------------
Email - skaterboy3356@hotmail.com
---------------------------------
------------------------------------------------------------------------------------------
I have had i few requestests for this song so here you all go.
------------------------------------------------------------------------------------------
------------------------------------------------------------------------------------------
This is the work of Colton Hilgen and if i find it anywhere else on the internet I 
will under my rights as a citizen have it removed. Thank You
--------------------------------------------------------------------------------

Guitar 1
e|-------------------------------------------|
B|----------------1-----3-----------1-----3--|
G|----------2s4---------------1----------4---|
D|---2s7---2-----2-----2-----2-----5----2----|
A|--0-----0-----0-----0-----2-----3----------|
E|-------------------------0-----1-----4-----|

Guitar 1
e|-------------------------------0--1---0--|
B|--------------1--------------------------|
G|---------2s4-------2s4--0--2--2--2--0----|
D|---2s7--2----2----2----------0--0--------|
A|--0----0----0----0-----3--3-------3------|
E|----------------------1--1---------------|

Guitar 1
e|-----------------------------------------|
B|----------------------5--3---------0-3---|
G|---2--2--2--2--2--2--2--2--1--1--1----1--|
D|--2--2--2--2--2--2--2--2--2--2--2--------|
A|-0--0--0--0--0--0--0--0--2--2--2---------|
E|-----------------------------------------|

Guitar 1
e|--------------------------------------------------------|
B|-----------------------0-3------------5--3---------0-3--|
G|----2--2--2--2--1--1--1---1----2--2--2--2--1--1--1---1--|
D|---2--2--2--2--2--2--2--------2--2--2--2--2--2--2-------|
A|--0--0--0--0--2--2--2--------0--0--0--0--2--2--2--------|
E|--------------------------------------------------------|

Guitar 1
e|--------------------------------------------------------|
B|-----------------------0-3------------5--3---------0-3--|
G|----2--2--2--2--1--1--1---1----2--2--2--2--1--1--1---1--|
D|---2--2--2--2--2--2--2--------2--2--2--2--2--2--2-------|
A|--0--0--0--0--2--2--2--------0--0--0--0--2--2--2--------|
E|--------------------------------------------------------|

Guitar 1
e|----------5--7--------------------|
B|----------------------------0-3---|
G|-------------------------------1--|
D|----3--3--3--3---2--2--2--2-------|
A|---3--3--3--3--2--2--2--2---------|
E|--1--1--1--1--0--0--0--0----------|
Tap to rate this tab
# A B C D E F G H I J K L M N O P Q R S T U V W X Y Z